ISO-10303-21;
HEADER;
FILE_DESCRIPTION (( 'STEP AP203' ),
    '1' );
FILE_NAME ('Pen.STEP',
    '2020-03-26T00:01:12',
    ( '' ),
    ( '' ),
    'SwSTEP 2.0',
    'SolidWorks 2017',
    '' );
FILE_SCHEMA (( 'CONFIG_CONTROL_DESIGN' ));
ENDSEC;

DATA;
#1 = LINE ( 'NONE', #37, #96 ) ;
#2 = APPLICATION_CONTEXT ( 'configuration controlled 3d designs of mechanical parts and assemblies' ) ;
#3 = COORDINATED_UNIVERSAL_TIME_OFFSET ( 5, 0, .BEHIND. ) ;
#4 = DIRECTION ( 'NONE',  ( 1.000000000000000000, 0.0000000000000000000, 0.0000000000000000000 ) ) ;
#5 = CIRCLE ( 'NONE', #77, 0.01499999999999999900 ) ;
#6 = CARTESIAN_POINT ( 'NONE',  ( 0.0000000000000000000, 0.0000000000000000000, 0.0000000000000000000 ) ) ;
#7 = DIRECTION ( 'NONE',  ( 1.000000000000000000, 0.0000000000000000000, 0.0000000000000000000 ) ) ;
#8 =( LENGTH_UNIT ( ) NAMED_UNIT ( * ) SI_UNIT ( $, .METRE. ) );
#9 = APPROVAL_PERSON_ORGANIZATION ( #137, #196, #78 ) ;
#10 = CARTESIAN_POINT ( 'NONE',  ( 0.0000000000000000000, 0.0000000000000000000, 0.0000000000000000000 ) ) ;
#11 = VERTEX_POINT ( 'NONE', #72 ) ;
#12 = ORIENTED_EDGE ( 'NONE', *, *, #49, .F. ) ;
#13 = VERTEX_POINT ( 'NONE', #85 ) ;
#14 = CC_DESIGN_SECURITY_CLASSIFICATION ( #176, ( #223 ) ) ;
#15 = PRODUCT_DEFINITION_SHAPE ( 'NONE', 'NONE',  #100 ) ;
#16 = EDGE_CURVE ( 'NONE', #175, #11, #102, .T. ) ;
#17 = CIRCLE ( 'NONE', #203, 0.002011848136049782200 ) ;
#18 = DIRECTION ( 'NONE',  ( -0.0000000000000000000, -0.0000000000000000000, -1.000000000000000000 ) ) ;
#19 = ADVANCED_FACE ( 'NONE', ( #213 ), #218, .T. ) ;
#20 = ORIENTED_EDGE ( 'NONE', *, *, #49, .T. ) ;
#21 = DIRECTION ( 'NONE',  ( -1.000000000000000000, 0.0000000000000000000, 0.0000000000000000000 ) ) ;
#22 =( NAMED_UNIT ( * ) SI_UNIT ( $, .STERADIAN. ) SOLID_ANGLE_UNIT ( ) );
#23 = PRODUCT ( 'Pen', 'Pen', '', ( #150 ) ) ;
#24 = CALENDAR_DATE ( 2020, 25, 3 ) ;
#25 = DIRECTION ( 'NONE',  ( -0.0000000000000000000, -0.0000000000000000000, -1.000000000000000000 ) ) ;
#26 = PERSON_AND_ORGANIZATION_ROLE ( 'classification_officer' ) ;
#27 = CIRCLE ( 'NONE', #64, 0.01499999999999999900 ) ;
#28 = PERSON_AND_ORGANIZATION ( #151, #87 ) ;
#29 = CALENDAR_DATE ( 2020, 25, 3 ) ;
#30 = ORIENTED_EDGE ( 'NONE', *, *, #84, .T. ) ;
#31 = VECTOR ( 'NONE', #70, 1.000000000000000200 ) ;
#32 = CC_DESIGN_PERSON_AND_ORGANIZATION_ASSIGNMENT ( #142, #45, ( #223 ) ) ;
#33 = CARTESIAN_POINT ( 'NONE',  ( 0.01499999999999999900, 0.0000000000000000000, 0.1700000000000000100 ) ) ;
#34 = ADVANCED_FACE ( 'NONE', ( #138 ), #50, .T. ) ;
#35 = CC_DESIGN_PERSON_AND_ORGANIZATION_ASSIGNMENT ( #60, #173, ( #223 ) ) ;
#36 = DIRECTION ( 'NONE',  ( 1.000000000000000000, 0.0000000000000000000, 0.0000000000000000000 ) ) ;
#37 = CARTESIAN_POINT ( 'NONE',  ( 0.01499999999999999900, 1.836970198721029600E-018, 0.1700000000000000100 ) ) ;
#38 = AXIS2_PLACEMENT_3D ( 'NONE', #147, #187, #73 ) ;
#39 = EDGE_CURVE ( 'NONE', #113, #145, #27, .T. ) ;
#40 = DIRECTION ( 'NONE',  ( 0.0000000000000000000, 0.0000000000000000000, 1.000000000000000000 ) ) ;
#41 = CARTESIAN_POINT ( 'NONE',  ( -0.002011848136049782200, -1.041675268369711400E-018, 0.1900000000000000000 ) ) ;
#42 = COORDINATED_UNIVERSAL_TIME_OFFSET ( 5, 0, .BEHIND. ) ;
#43 = CC_DESIGN_PERSON_AND_ORGANIZATION_ASSIGNMENT ( #79, #26, ( #176 ) ) ;
#44 = CALENDAR_DATE ( 2020, 25, 3 ) ;
#45 = PERSON_AND_ORGANIZATION_ROLE ( 'design_supplier' ) ;
#46 = ORIENTED_EDGE ( 'NONE', *, *, #133, .F. ) ;
#47 = DATE_AND_TIME ( #86, #122 ) ;
#48 = ORIENTED_EDGE ( 'NONE', *, *, #155, .F. ) ;
#49 = EDGE_CURVE ( 'NONE', #11, #13, #5, .T. ) ;
#50 = CONICAL_SURFACE ( 'NONE', #195, 0.01499999999999999900, 0.5759586531581292200 ) ;
#51 = DIRECTION ( 'NONE',  ( -0.0000000000000000000, -0.0000000000000000000, -1.000000000000000000 ) ) ;
#52 = UNCERTAINTY_MEASURE_WITH_UNIT (LENGTH_MEASURE( 1.000000000000000100E-005 ), #8, 'distance_accuracy_value', 'NONE');
#53 = CARTESIAN_POINT ( 'NONE',  ( 0.0000000000000000000, 0.0000000000000000000, 0.1700000000000000100 ) ) ;
#54 =( GEOMETRIC_REPRESENTATION_CONTEXT ( 3 ) GLOBAL_UNCERTAINTY_ASSIGNED_CONTEXT ( ( #52 ) ) GLOBAL_UNIT_ASSIGNED_CONTEXT ( ( #8, #131, #22 ) ) REPRESENTATION_CONTEXT ( 'NONE', 'WORKASPACE' ) );
#55 = EDGE_LOOP ( 'NONE', ( #156, #159, #30, #99 ) ) ;
#56 = CARTESIAN_POINT ( 'NONE',  ( 0.0000000000000000000, 0.0000000000000000000, 0.1700000000000000100 ) ) ;
#57 = CARTESIAN_POINT ( 'NONE',  ( 0.002011848136049782200, 0.0000000000000000000, 0.1900000000000000000 ) ) ;
#58 = DIRECTION ( 'NONE',  ( 0.0000000000000000000, 0.0000000000000000000, 1.000000000000000000 ) ) ;
#59 = DIRECTION ( 'NONE',  ( 0.0000000000000000000, 0.0000000000000000000, 1.000000000000000000 ) ) ;
#60 = PERSON_AND_ORGANIZATION ( #151, #87 ) ;
#61 = ORIENTED_EDGE ( 'NONE', *, *, #16, .T. ) ;
#62 = PERSON_AND_ORGANIZATION_ROLE ( 'creator' ) ;
#63 = ORIENTED_EDGE ( 'NONE', *, *, #39, .F. ) ;
#64 = AXIS2_PLACEMENT_3D ( 'NONE', #160, #103, #4 ) ;
#65 = FACE_OUTER_BOUND ( 'NONE', #93, .T. ) ;
#66 = ORIENTED_EDGE ( 'NONE', *, *, #181, .F. ) ;
#67 = ORIENTED_EDGE ( 'NONE', *, *, #181, .T. ) ;
#68 = CARTESIAN_POINT ( 'NONE',  ( 0.0000000000000000000, 0.0000000000000000000, 0.1700000000000000100 ) ) ;
#69 = PERSON_AND_ORGANIZATION ( #151, #87 ) ;
#70 = DIRECTION ( 'NONE',  ( 0.5446390350150274200, 0.0000000000000000000, -0.8386705679454237200 ) ) ;
#71 = EDGE_LOOP ( 'NONE', ( #12, #67, #76, #48 ) ) ;
#72 = CARTESIAN_POINT ( 'NONE',  ( 0.01499999999999999900, 1.836970198721029600E-018, 0.1700000000000000100 ) ) ;
#73 = DIRECTION ( 'NONE',  ( -1.000000000000000000, 0.0000000000000000000, 0.0000000000000000000 ) ) ;
#74 = DIRECTION ( 'NONE',  ( 1.000000000000000000, 0.0000000000000000000, -0.0000000000000000000 ) ) ;
#75 = LOCAL_TIME ( 20, 1, 11.00000000000000000, #221 ) ;
#76 = ORIENTED_EDGE ( 'NONE', *, *, #39, .T. ) ;
#77 = AXIS2_PLACEMENT_3D ( 'NONE', #68, #92, #204 ) ;
#78 = APPROVAL_ROLE ( '' ) ;
#79 = PERSON_AND_ORGANIZATION ( #151, #87 ) ;
#80 = FACE_OUTER_BOUND ( 'NONE', #71, .T. ) ;
#81 = VECTOR ( 'NONE', #222, 1.000000000000000000 ) ;
#82 = CIRCLE ( 'NONE', #178, 0.01499999999999999900 ) ;
#83 = CC_DESIGN_APPROVAL ( #129, ( #100 ) ) ;
#84 = EDGE_CURVE ( 'NONE', #13, #11, #149, .T. ) ;
#85 = CARTESIAN_POINT ( 'NONE',  ( -0.01499999999999999900, 0.0000000000000000000, 0.1700000000000000100 ) ) ;
#86 = CALENDAR_DATE ( 2020, 25, 3 ) ;
#87 = ORGANIZATION ( 'UNSPECIFIED', 'UNSPECIFIED', '' ) ;
#88 = AXIS2_PLACEMENT_3D ( 'NONE', #56, #130, #205 ) ;
#89 = DIRECTION ( 'NONE',  ( 1.000000000000000000, 0.0000000000000000000, 0.0000000000000000000 ) ) ;
#90 = PRODUCT_RELATED_PRODUCT_CATEGORY ( 'detail', '', ( #23 ) ) ;
#91 = DATE_AND_TIME ( #44, #167 ) ;
#92 = DIRECTION ( 'NONE',  ( 0.0000000000000000000, 0.0000000000000000000, 1.000000000000000000 ) ) ;
#93 = EDGE_LOOP ( 'NONE', ( #134, #154 ) ) ;
#94 = CARTESIAN_POINT ( 'NONE',  ( -0.01499999999999999900, 0.0000000000000000000, 0.1700000000000000100 ) ) ;
#95 = APPLICATION_CONTEXT ( 'configuration controlled 3d designs of mechanical parts and assemblies' ) ;
#96 = VECTOR ( 'NONE', #185, 1.000000000000000000 ) ;
#97 = CC_DESIGN_APPROVAL ( #196, ( #176 ) ) ;
#98 = APPROVAL_STATUS ( 'not_yet_approved' ) ;
#99 = ORIENTED_EDGE ( 'NONE', *, *, #16, .F. ) ;
#100 = PRODUCT_DEFINITION ( 'UNKNOWN', '', #223, #191 ) ;
#101 = AXIS2_PLACEMENT_3D ( 'NONE', #200, #18, #216 ) ;
#102 = LINE ( 'NONE', #33, #31 ) ;
#103 = DIRECTION ( 'NONE',  ( 0.0000000000000000000, 0.0000000000000000000, 1.000000000000000000 ) ) ;
#104 = APPROVAL_DATE_TIME ( #152, #198 ) ;
#105 = EDGE_LOOP ( 'NONE', ( #197, #63 ) ) ;
#106 = ADVANCED_FACE ( 'NONE', ( #65 ), #217, .T. ) ;
#107 = VERTEX_POINT ( 'NONE', #41 ) ;
#108 = APPLICATION_PROTOCOL_DEFINITION ( 'international standard', 'config_control_design', 1994, #95 ) ;
#109 = DIRECTION ( 'NONE',  ( 0.0000000000000000000, 0.0000000000000000000, 1.000000000000000000 ) ) ;
#110 = AXIS2_PLACEMENT_3D ( 'NONE', #202, #109, #7 ) ;
#111 = CARTESIAN_POINT ( 'NONE',  ( -0.01499999999999999900, 0.0000000000000000000, 0.0000000000000000000 ) ) ;
#112 = DATE_AND_TIME ( #29, #75 ) ;
#113 = VERTEX_POINT ( 'NONE', #114 ) ;
#114 = CARTESIAN_POINT ( 'NONE',  ( 0.01499999999999999900, 1.836970198721029600E-018, 0.0000000000000000000 ) ) ;
#115 = DATE_TIME_ROLE ( 'creation_date' ) ;
#116 = AXIS2_PLACEMENT_3D ( 'NONE', #183, #40, #165 ) ;
#117 = FACE_OUTER_BOUND ( 'NONE', #105, .T. ) ;
#118 = EDGE_LOOP ( 'NONE', ( #66, #139, #162, #194 ) ) ;
#119 = AXIS2_PLACEMENT_3D ( 'NONE', #146, #59, #74 ) ;
#120 = COORDINATED_UNIVERSAL_TIME_OFFSET ( 5, 0, .BEHIND. ) ;
#121 = APPROVAL_DATE_TIME ( #112, #129 ) ;
#122 = LOCAL_TIME ( 20, 1, 11.00000000000000000, #42 ) ;
#123 = CC_DESIGN_PERSON_AND_ORGANIZATION_ASSIGNMENT ( #69, #62, ( #100 ) ) ;
#124 = SHAPE_DEFINITION_REPRESENTATION ( #15, #153 ) ;
#125 = AXIS2_PLACEMENT_3D ( 'NONE', #128, #25, #21 ) ;
#126 = ADVANCED_FACE ( 'NONE', ( #80 ), #193, .T. ) ;
#127 = LINE ( 'NONE', #94, #81 ) ;
#128 = CARTESIAN_POINT ( 'NONE',  ( 0.0000000000000000000, 0.0000000000000000000, 0.1700000000000000100 ) ) ;
#129 = APPROVAL ( #224, 'UNSPECIFIED' ) ;
#130 = DIRECTION ( 'NONE',  ( 0.0000000000000000000, 0.0000000000000000000, 1.000000000000000000 ) ) ;
#131 =( NAMED_UNIT ( * ) PLANE_ANGLE_UNIT ( ) SI_UNIT ( $, .RADIAN. ) );
#132 = CARTESIAN_POINT ( 'NONE',  ( -0.01499999999999999900, -1.836970198721029600E-018, 0.1700000000000000100 ) ) ;
#133 = EDGE_CURVE ( 'NONE', #107, #13, #210, .T. ) ;
#134 = ORIENTED_EDGE ( 'NONE', *, *, #163, .T. ) ;
#135 = APPROVAL_ROLE ( '' ) ;
#136 = CALENDAR_DATE ( 2020, 25, 3 ) ;
#137 = PERSON_AND_ORGANIZATION ( #151, #87 ) ;
#138 = FACE_OUTER_BOUND ( 'NONE', #55, .T. ) ;
#139 = ORIENTED_EDGE ( 'NONE', *, *, #84, .F. ) ;
#140 = EDGE_CURVE ( 'NONE', #145, #113, #82, .T. ) ;
#141 = CC_DESIGN_APPROVAL ( #198, ( #223 ) ) ;
#142 = PERSON_AND_ORGANIZATION ( #151, #87 ) ;
#143 = CIRCLE ( 'NONE', #110, 0.002011848136049782200 ) ;
#144 = DIRECTION ( 'NONE',  ( 1.000000000000000000, 0.0000000000000000000, 0.0000000000000000000 ) ) ;
#145 = VERTEX_POINT ( 'NONE', #111 ) ;
#146 = CARTESIAN_POINT ( 'NONE',  ( 0.0000000000000000000, 0.0000000000000000000, 0.0000000000000000000 ) ) ;
#147 = CARTESIAN_POINT ( 'NONE',  ( 0.0000000000000000000, 0.0000000000000000000, 0.1700000000000000100 ) ) ;
#148 = CARTESIAN_POINT ( 'NONE',  ( 0.0000000000000000000, 0.0000000000000000000, 0.1900000000000000000 ) ) ;
#149 = CIRCLE ( 'NONE', #88, 0.01499999999999999900 ) ;
#150 = MECHANICAL_CONTEXT ( 'NONE', #95, 'mechanical' ) ;
#151 = PERSON ( 'UNSPECIFIED', 'UNSPECIFIED', 'UNSPECIFIED', ('UNSPECIFIED'), ('UNSPECIFIED'), ('UNSPECIFIED') ) ;
#152 = DATE_AND_TIME ( #24, #206 ) ;
#153 = ADVANCED_BREP_SHAPE_REPRESENTATION ( 'Pen', ( #180, #190 ), #54 ) ;
#154 = ORIENTED_EDGE ( 'NONE', *, *, #171, .T. ) ;
#155 = EDGE_CURVE ( 'NONE', #13, #145, #127, .T. ) ;
#156 = ORIENTED_EDGE ( 'NONE', *, *, #171, .F. ) ;
#157 = APPROVAL_DATE_TIME ( #47, #196 ) ;
#158 = PERSON_AND_ORGANIZATION ( #151, #87 ) ;
#159 = ORIENTED_EDGE ( 'NONE', *, *, #133, .T. ) ;
#160 = CARTESIAN_POINT ( 'NONE',  ( 0.0000000000000000000, 0.0000000000000000000, 0.0000000000000000000 ) ) ;
#161 = LOCAL_TIME ( 20, 1, 11.00000000000000000, #3 ) ;
#162 = ORIENTED_EDGE ( 'NONE', *, *, #155, .T. ) ;
#163 = EDGE_CURVE ( 'NONE', #175, #107, #143, .T. ) ;
#164 = DIRECTION ( 'NONE',  ( 0.0000000000000000000, 0.0000000000000000000, 1.000000000000000000 ) ) ;
#165 = DIRECTION ( 'NONE',  ( 1.000000000000000000, 0.0000000000000000000, -0.0000000000000000000 ) ) ;
#166 = ADVANCED_FACE ( 'NONE', ( #117 ), #168, .F. ) ;
#167 = LOCAL_TIME ( 20, 1, 11.00000000000000000, #189 ) ;
#168 = PLANE ( 'NONE',  #119 ) ;
#169 = APPROVAL_PERSON_ORGANIZATION ( #215, #198, #192 ) ;
#170 = DIRECTION ( 'NONE',  ( -0.5446390350150274200, -6.669904509218566000E-017, -0.8386705679454237200 ) ) ;
#171 = EDGE_CURVE ( 'NONE', #107, #175, #17, .T. ) ;
#172 = VECTOR ( 'NONE', #170, 1.000000000000000200 ) ;
#173 = PERSON_AND_ORGANIZATION_ROLE ( 'creator' ) ;
#174 = SECURITY_CLASSIFICATION_LEVEL ( 'unclassified' ) ;
#175 = VERTEX_POINT ( 'NONE', #57 ) ;
#176 = SECURITY_CLASSIFICATION ( '', '', #174 ) ;
#177 = APPROVAL_PERSON_ORGANIZATION ( #158, #129, #135 ) ;
#178 = AXIS2_PLACEMENT_3D ( 'NONE', #6, #164, #144 ) ;
#179 = DATE_AND_TIME ( #136, #161 ) ;
#180 = MANIFOLD_SOLID_BREP ( 'Boss-Extrude2', #208 ) ;
#181 = EDGE_CURVE ( 'NONE', #11, #113, #1, .T. ) ;
#182 = FACE_OUTER_BOUND ( 'NONE', #118, .T. ) ;
#183 = CARTESIAN_POINT ( 'NONE',  ( 0.0000000000000000000, 0.0000000000000000000, 0.1900000000000000000 ) ) ;
#184 = CYLINDRICAL_SURFACE ( 'NONE', #38, 0.01499999999999999900 ) ;
#185 = DIRECTION ( 'NONE',  ( -0.0000000000000000000, -0.0000000000000000000, -1.000000000000000000 ) ) ;
#186 = DIRECTION ( 'NONE',  ( 0.0000000000000000000, 0.0000000000000000000, 1.000000000000000000 ) ) ;
#187 = DIRECTION ( 'NONE',  ( -0.0000000000000000000, -0.0000000000000000000, -1.000000000000000000 ) ) ;
#188 = DATE_TIME_ROLE ( 'classification_date' ) ;
#189 = COORDINATED_UNIVERSAL_TIME_OFFSET ( 5, 0, .BEHIND. ) ;
#190 = AXIS2_PLACEMENT_3D ( 'NONE', #10, #58, #89 ) ;
#191 = DESIGN_CONTEXT ( 'detailed design', #2, 'design' ) ;
#192 = APPROVAL_ROLE ( '' ) ;
#193 = CYLINDRICAL_SURFACE ( 'NONE', #125, 0.01499999999999999900 ) ;
#194 = ORIENTED_EDGE ( 'NONE', *, *, #140, .T. ) ;
#195 = AXIS2_PLACEMENT_3D ( 'NONE', #53, #51, #36 ) ;
#196 = APPROVAL ( #211, 'UNSPECIFIED' ) ;
#197 = ORIENTED_EDGE ( 'NONE', *, *, #140, .F. ) ;
#198 = APPROVAL ( #98, 'UNSPECIFIED' ) ;
#199 = ADVANCED_FACE ( 'NONE', ( #182 ), #184, .T. ) ;
#200 = CARTESIAN_POINT ( 'NONE',  ( 0.0000000000000000000, 0.0000000000000000000, 0.1700000000000000100 ) ) ;
#201 = ORIENTED_EDGE ( 'NONE', *, *, #163, .F. ) ;
#202 = CARTESIAN_POINT ( 'NONE',  ( 0.0000000000000000000, 0.0000000000000000000, 0.1900000000000000000 ) ) ;
#203 = AXIS2_PLACEMENT_3D ( 'NONE', #148, #186, #207 ) ;
#204 = DIRECTION ( 'NONE',  ( 1.000000000000000000, 0.0000000000000000000, 0.0000000000000000000 ) ) ;
#205 = DIRECTION ( 'NONE',  ( 1.000000000000000000, 0.0000000000000000000, 0.0000000000000000000 ) ) ;
#206 = LOCAL_TIME ( 20, 1, 11.00000000000000000, #120 ) ;
#207 = DIRECTION ( 'NONE',  ( 1.000000000000000000, 0.0000000000000000000, 0.0000000000000000000 ) ) ;
#208 = CLOSED_SHELL ( 'NONE', ( #34, #126, #199, #166, #19, #106 ) ) ;
#209 = APPLICATION_PROTOCOL_DEFINITION ( 'international standard', 'config_control_design', 1994, #2 ) ;
#210 = LINE ( 'NONE', #132, #172 ) ;
#211 = APPROVAL_STATUS ( 'not_yet_approved' ) ;
#212 = CC_DESIGN_PERSON_AND_ORGANIZATION_ASSIGNMENT ( #28, #220, ( #23 ) ) ;
#213 = FACE_OUTER_BOUND ( 'NONE', #219, .T. ) ;
#214 = CC_DESIGN_DATE_AND_TIME_ASSIGNMENT ( #179, #115, ( #100 ) ) ;
#215 = PERSON_AND_ORGANIZATION ( #151, #87 ) ;
#216 = DIRECTION ( 'NONE',  ( 1.000000000000000000, 0.0000000000000000000, 0.0000000000000000000 ) ) ;
#217 = PLANE ( 'NONE',  #116 ) ;
#218 = CONICAL_SURFACE ( 'NONE', #101, 0.01499999999999999900, 0.5759586531581292200 ) ;
#219 = EDGE_LOOP ( 'NONE', ( #46, #201, #61, #20 ) ) ;
#220 = PERSON_AND_ORGANIZATION_ROLE ( 'design_owner' ) ;
#221 = COORDINATED_UNIVERSAL_TIME_OFFSET ( 5, 0, .BEHIND. ) ;
#222 = DIRECTION ( 'NONE',  ( -0.0000000000000000000, -0.0000000000000000000, -1.000000000000000000 ) ) ;
#223 = PRODUCT_DEFINITION_FORMATION_WITH_SPECIFIED_SOURCE ( 'ANY', '', #23, .NOT_KNOWN. ) ;
#224 = APPROVAL_STATUS ( 'not_yet_approved' ) ;
#225 = CC_DESIGN_DATE_AND_TIME_ASSIGNMENT ( #91, #188, ( #176 ) ) ;
ENDSEC;
END-ISO-10303-21;
