ISO-10303-21;
HEADER;
FILE_DESCRIPTION( ( '' ), ' ' );
FILE_NAME( '/vol/tmp/translate-151150678450219573/5817855f5aa2f4106138e1ce.step', '2016-10-31T17:54:39', ( '' ), ( '' ), ' ', ' ', ' ' );
FILE_SCHEMA( ( 'AUTOMOTIVE_DESIGN { 1 0 10303 214 1 1 1 1 }' ) );
ENDSEC;
DATA;
#1 = MECHANICAL_DESIGN_GEOMETRIC_PRESENTATION_REPRESENTATION( ' ', ( #10, #11, #12, #13, #14, #15, #16, #17, #18, #19, #20, #21, #22, #23, #24 ), #6 );
#2 = PRODUCT_DEFINITION_CONTEXT( '', #25, 'design' );
#3 = APPLICATION_PROTOCOL_DEFINITION( 'international standard', 'automotive_design', 2001, #25 );
#4 = PRODUCT_CATEGORY_RELATIONSHIP( 'NONE', 'NONE', #26, #27 );
#5 = SHAPE_DEFINITION_REPRESENTATION( #28, #29 );
#6 =  ( GEOMETRIC_REPRESENTATION_CONTEXT( 3 )GLOBAL_UNCERTAINTY_ASSIGNED_CONTEXT( ( #32 ) )GLOBAL_UNIT_ASSIGNED_CONTEXT( ( #34, #35, #36 ) )REPRESENTATION_CONTEXT( 'NONE', 'WORKSPACE' ) );
#10 = STYLED_ITEM( '', ( #38 ), #39 );
#11 = STYLED_ITEM( '', ( #40 ), #41 );
#12 = STYLED_ITEM( '', ( #42 ), #43 );
#13 = STYLED_ITEM( '', ( #44 ), #45 );
#14 = STYLED_ITEM( '', ( #46 ), #47 );
#15 = STYLED_ITEM( '', ( #48 ), #49 );
#16 = STYLED_ITEM( '', ( #50 ), #51 );
#17 = STYLED_ITEM( '', ( #52 ), #53 );
#18 = STYLED_ITEM( '', ( #54 ), #55 );
#19 = STYLED_ITEM( '', ( #56 ), #57 );
#20 = STYLED_ITEM( '', ( #58 ), #59 );
#21 = STYLED_ITEM( '', ( #60 ), #61 );
#22 = STYLED_ITEM( '', ( #62 ), #63 );
#23 = STYLED_ITEM( '', ( #64 ), #65 );
#24 = STYLED_ITEM( '', ( #66 ), #67 );
#25 = APPLICATION_CONTEXT( 'core data for automotive mechanical design processes' );
#26 = PRODUCT_CATEGORY( 'part', 'NONE' );
#27 = PRODUCT_RELATED_PRODUCT_CATEGORY( 'detail', ' ', ( #68 ) );
#28 = PRODUCT_DEFINITION_SHAPE( 'NONE', 'NONE', #69 );
#29 = ADVANCED_BREP_SHAPE_REPRESENTATION( 'shoulder_swivel', ( #70, #71 ), #6 );
#32 = UNCERTAINTY_MEASURE_WITH_UNIT( LENGTH_MEASURE( 1.00000000000000E-06 ), #34, '', '' );
#34 =  ( CONVERSION_BASED_UNIT( 'METRE', #74 )LENGTH_UNIT(  )NAMED_UNIT( #77 ) );
#35 =  ( NAMED_UNIT( #79 )PLANE_ANGLE_UNIT(  )SI_UNIT( $, .RADIAN. ) );
#36 =  ( NAMED_UNIT( #79 )SI_UNIT( $, .STERADIAN. )SOLID_ANGLE_UNIT(  ) );
#38 = PRESENTATION_STYLE_ASSIGNMENT( ( #85 ) );
#39 = ADVANCED_FACE( '', ( #86, #87, #88 ), #89, .T. );
#40 = PRESENTATION_STYLE_ASSIGNMENT( ( #90 ) );
#41 = ADVANCED_FACE( '', ( #91, #92 ), #93, .T. );
#42 = PRESENTATION_STYLE_ASSIGNMENT( ( #94 ) );
#43 = ADVANCED_FACE( '', ( #95 ), #96, .T. );
#44 = PRESENTATION_STYLE_ASSIGNMENT( ( #97 ) );
#45 = ADVANCED_FACE( '', ( #98 ), #99, .T. );
#46 = PRESENTATION_STYLE_ASSIGNMENT( ( #100 ) );
#47 = ADVANCED_FACE( '', ( #101, #102 ), #103, .T. );
#48 = PRESENTATION_STYLE_ASSIGNMENT( ( #104 ) );
#49 = ADVANCED_FACE( '', ( #105, #106 ), #107, .F. );
#50 = PRESENTATION_STYLE_ASSIGNMENT( ( #108 ) );
#51 = ADVANCED_FACE( '', ( #109, #110 ), #111, .T. );
#52 = PRESENTATION_STYLE_ASSIGNMENT( ( #112 ) );
#53 = ADVANCED_FACE( '', ( #113, #114 ), #115, .F. );
#54 = PRESENTATION_STYLE_ASSIGNMENT( ( #116 ) );
#55 = ADVANCED_FACE( '', ( #117 ), #118, .T. );
#56 = PRESENTATION_STYLE_ASSIGNMENT( ( #119 ) );
#57 = ADVANCED_FACE( '', ( #120 ), #121, .T. );
#58 = PRESENTATION_STYLE_ASSIGNMENT( ( #122 ) );
#59 = ADVANCED_FACE( '', ( #123, #124 ), #125, .T. );
#60 = PRESENTATION_STYLE_ASSIGNMENT( ( #126 ) );
#61 = ADVANCED_FACE( '', ( #127 ), #128, .F. );
#62 = PRESENTATION_STYLE_ASSIGNMENT( ( #129 ) );
#63 = ADVANCED_FACE( '', ( #130, #131, #132 ), #133, .T. );
#64 = PRESENTATION_STYLE_ASSIGNMENT( ( #134 ) );
#65 = ADVANCED_FACE( '', ( #135, #136, #137 ), #138, .T. );
#66 = PRESENTATION_STYLE_ASSIGNMENT( ( #139 ) );
#67 = ADVANCED_FACE( '', ( #140, #141 ), #142, .T. );
#68 = PRODUCT( 'shoulder_swivel', 'shoulder_swivel', 'PART-shoulder_swivel-DESC', ( #143 ) );
#69 = PRODUCT_DEFINITION( 'NONE', 'NONE', #144, #2 );
#70 = MANIFOLD_SOLID_BREP( 'shoulder_swivel', #145 );
#71 = AXIS2_PLACEMENT_3D( '', #146, #147, #148 );
#74 = LENGTH_MEASURE_WITH_UNIT( LENGTH_MEASURE( 1.00000000000000 ), #149 );
#77 = DIMENSIONAL_EXPONENTS( 1.00000000000000, 0.00000000000000, 0.00000000000000, 0.00000000000000, 0.00000000000000, 0.00000000000000, 0.00000000000000 );
#79 = DIMENSIONAL_EXPONENTS( 0.00000000000000, 0.00000000000000, 0.00000000000000, 0.00000000000000, 0.00000000000000, 0.00000000000000, 0.00000000000000 );
#85 = SURFACE_STYLE_USAGE( .BOTH., #150 );
#86 = FACE_BOUND( '', #151, .T. );
#87 = FACE_OUTER_BOUND( '', #152, .T. );
#88 = FACE_OUTER_BOUND( '', #153, .T. );
#89 = TOROIDAL_SURFACE( '', #154, 0.00762000000000000, 0.00127000000000000 );
#90 = SURFACE_STYLE_USAGE( .BOTH., #155 );
#91 = FACE_OUTER_BOUND( '', #156, .T. );
#92 = FACE_OUTER_BOUND( '', #157, .T. );
#93 = CYLINDRICAL_SURFACE( '', #158, 0.00635000000000000 );
#94 = SURFACE_STYLE_USAGE( .BOTH., #159 );
#95 = FACE_OUTER_BOUND( '', #160, .T. );
#96 = PLANE( '', #161 );
#97 = SURFACE_STYLE_USAGE( .BOTH., #162 );
#98 = FACE_OUTER_BOUND( '', #163, .T. );
#99 = PLANE( '', #164 );
#100 = SURFACE_STYLE_USAGE( .BOTH., #165 );
#101 = FACE_OUTER_BOUND( '', #166, .T. );
#102 = FACE_OUTER_BOUND( '', #167, .T. );
#103 = CYLINDRICAL_SURFACE( '', #168, 0.00635000000000000 );
#104 = SURFACE_STYLE_USAGE( .BOTH., #169 );
#105 = FACE_OUTER_BOUND( '', #170, .T. );
#106 = FACE_BOUND( '', #171, .T. );
#107 = PLANE( '', #172 );
#108 = SURFACE_STYLE_USAGE( .BOTH., #173 );
#109 = FACE_OUTER_BOUND( '', #174, .T. );
#110 = FACE_BOUND( '', #175, .T. );
#111 = CONICAL_SURFACE( '', #176, 0.00508000000000000, 0.785398163400000 );
#112 = SURFACE_STYLE_USAGE( .BOTH., #177 );
#113 = FACE_OUTER_BOUND( '', #178, .T. );
#114 = FACE_BOUND( '', #179, .T. );
#115 = PLANE( '', #180 );
#116 = SURFACE_STYLE_USAGE( .BOTH., #181 );
#117 = FACE_OUTER_BOUND( '', #182, .T. );
#118 = PLANE( '', #183 );
#119 = SURFACE_STYLE_USAGE( .BOTH., #184 );
#120 = FACE_OUTER_BOUND( '', #185, .T. );
#121 = PLANE( '', #186 );
#122 = SURFACE_STYLE_USAGE( .BOTH., #187 );
#123 = FACE_BOUND( '', #188, .T. );
#124 = FACE_OUTER_BOUND( '', #189, .T. );
#125 = PLANE( '', #190 );
#126 = SURFACE_STYLE_USAGE( .BOTH., #191 );
#127 = FACE_OUTER_BOUND( '', #192, .T. );
#128 = PLANE( '', #193 );
#129 = SURFACE_STYLE_USAGE( .BOTH., #194 );
#130 = FACE_OUTER_BOUND( '', #195, .T. );
#131 = FACE_OUTER_BOUND( '', #196, .T. );
#132 = FACE_BOUND( '', #197, .T. );
#133 = CYLINDRICAL_SURFACE( '', #198, 0.00635000000000000 );
#134 = SURFACE_STYLE_USAGE( .BOTH., #199 );
#135 = FACE_BOUND( '', #200, .T. );
#136 = FACE_OUTER_BOUND( '', #201, .T. );
#137 = FACE_OUTER_BOUND( '', #202, .T. );
#138 = TOROIDAL_SURFACE( '', #203, 0.00762000000000000, 0.00127000000000000 );
#139 = SURFACE_STYLE_USAGE( .BOTH., #204 );
#140 = FACE_BOUND( '', #205, .T. );
#141 = FACE_OUTER_BOUND( '', #206, .T. );
#142 = CONICAL_SURFACE( '', #207, 0.00635000000000000, 0.785398163400000 );
#143 = PRODUCT_CONTEXT( '', #25, 'mechanical' );
#144 = PRODUCT_DEFINITION_FORMATION_WITH_SPECIFIED_SOURCE( ' ', 'NONE', #68, .NOT_KNOWN. );
#145 = CLOSED_SHELL( '', ( #67, #63, #51, #45, #61, #47, #55, #39, #65, #53, #59, #41, #43, #57, #49 ) );
#146 = CARTESIAN_POINT( '', ( 0.00000000000000, 0.00000000000000, 0.00000000000000 ) );
#147 = DIRECTION( '', ( 0.00000000000000, 0.00000000000000, 1.00000000000000 ) );
#148 = DIRECTION( '', ( 1.00000000000000, 0.00000000000000, 0.00000000000000 ) );
#149 =  ( LENGTH_UNIT(  )NAMED_UNIT( #77 )SI_UNIT( $, .METRE. ) );
#150 = SURFACE_SIDE_STYLE( '', ( #209 ) );
#151 = VERTEX_LOOP( '', #210 );
#152 = EDGE_LOOP( '', ( #211 ) );
#153 = EDGE_LOOP( '', ( #212 ) );
#154 = AXIS2_PLACEMENT_3D( '', #213, #214, #215 );
#155 = SURFACE_SIDE_STYLE( '', ( #216 ) );
#156 = EDGE_LOOP( '', ( #217 ) );
#157 = EDGE_LOOP( '', ( #218, #219, #220, #221 ) );
#158 = AXIS2_PLACEMENT_3D( '', #222, #223, #224 );
#159 = SURFACE_SIDE_STYLE( '', ( #225 ) );
#160 = EDGE_LOOP( '', ( #226, #227 ) );
#161 = AXIS2_PLACEMENT_3D( '', #228, #229, #230 );
#162 = SURFACE_SIDE_STYLE( '', ( #231 ) );
#163 = EDGE_LOOP( '', ( #232 ) );
#164 = AXIS2_PLACEMENT_3D( '', #233, #234, #235 );
#165 = SURFACE_SIDE_STYLE( '', ( #236 ) );
#166 = EDGE_LOOP( '', ( #237 ) );
#167 = EDGE_LOOP( '', ( #238 ) );
#168 = AXIS2_PLACEMENT_3D( '', #239, #240, #241 );
#169 = SURFACE_SIDE_STYLE( '', ( #242 ) );
#170 = EDGE_LOOP( '', ( #243 ) );
#171 = EDGE_LOOP( '', ( #244 ) );
#172 = AXIS2_PLACEMENT_3D( '', #245, #246, #247 );
#173 = SURFACE_SIDE_STYLE( '', ( #248 ) );
#174 = EDGE_LOOP( '', ( #249 ) );
#175 = EDGE_LOOP( '', ( #250 ) );
#176 = AXIS2_PLACEMENT_3D( '', #251, #252, #253 );
#177 = SURFACE_SIDE_STYLE( '', ( #254 ) );
#178 = EDGE_LOOP( '', ( #255 ) );
#179 = EDGE_LOOP( '', ( #256 ) );
#180 = AXIS2_PLACEMENT_3D( '', #257, #258, #259 );
#181 = SURFACE_SIDE_STYLE( '', ( #260 ) );
#182 = EDGE_LOOP( '', ( #261 ) );
#183 = AXIS2_PLACEMENT_3D( '', #262, #263, #264 );
#184 = SURFACE_SIDE_STYLE( '', ( #265 ) );
#185 = EDGE_LOOP( '', ( #266, #267 ) );
#186 = AXIS2_PLACEMENT_3D( '', #268, #269, #270 );
#187 = SURFACE_SIDE_STYLE( '', ( #271 ) );
#188 = EDGE_LOOP( '', ( #272 ) );
#189 = EDGE_LOOP( '', ( #273 ) );
#190 = AXIS2_PLACEMENT_3D( '', #274, #275, #276 );
#191 = SURFACE_SIDE_STYLE( '', ( #277 ) );
#192 = EDGE_LOOP( '', ( #278 ) );
#193 = AXIS2_PLACEMENT_3D( '', #279, #280, #281 );
#194 = SURFACE_SIDE_STYLE( '', ( #282 ) );
#195 = EDGE_LOOP( '', ( #283 ) );
#196 = EDGE_LOOP( '', ( #284 ) );
#197 = EDGE_LOOP( '', ( #285, #286, #287, #288 ) );
#198 = AXIS2_PLACEMENT_3D( '', #289, #290, #291 );
#199 = SURFACE_SIDE_STYLE( '', ( #292 ) );
#200 = VERTEX_LOOP( '', #293 );
#201 = EDGE_LOOP( '', ( #294 ) );
#202 = EDGE_LOOP( '', ( #295 ) );
#203 = AXIS2_PLACEMENT_3D( '', #296, #297, #298 );
#204 = SURFACE_SIDE_STYLE( '', ( #299 ) );
#205 = EDGE_LOOP( '', ( #300 ) );
#206 = EDGE_LOOP( '', ( #301 ) );
#207 = AXIS2_PLACEMENT_3D( '', #302, #303, #304 );
#209 = SURFACE_STYLE_FILL_AREA( #305 );
#210 = VERTEX_POINT( '', #306 );
#211 = ORIENTED_EDGE( '', *, *, #307, .F. );
#212 = ORIENTED_EDGE( '', *, *, #308, .F. );
#213 = CARTESIAN_POINT( '', ( -0.0165100000000000, 0.00000000000000, -5.55111512312578E-17 ) );
#214 = DIRECTION( '', ( -1.00000000000000, 0.00000000000000, 0.00000000000000 ) );
#215 = DIRECTION( '', ( 0.00000000000000, 0.00000000000000, 1.00000000000000 ) );
#216 = SURFACE_STYLE_FILL_AREA( #309 );
#217 = ORIENTED_EDGE( '', *, *, #310, .T. );
#218 = ORIENTED_EDGE( '', *, *, #311, .F. );
#219 = ORIENTED_EDGE( '', *, *, #312, .T. );
#220 = ORIENTED_EDGE( '', *, *, #313, .F. );
#221 = ORIENTED_EDGE( '', *, *, #314, .T. );
#222 = CARTESIAN_POINT( '', ( 0.0166370000000000, 0.00000000000000, -5.55111512312578E-17 ) );
#223 = DIRECTION( '', ( 1.00000000000000, -0.00000000000000, -0.00000000000000 ) );
#224 = DIRECTION( '', ( 0.00000000000000, 0.00000000000000, 1.00000000000000 ) );
#225 = SURFACE_STYLE_FILL_AREA( #315 );
#226 = ORIENTED_EDGE( '', *, *, #316, .F. );
#227 = ORIENTED_EDGE( '', *, *, #311, .T. );
#228 = CARTESIAN_POINT( '', ( 0.0166370000000000, 0.00000000000000, -5.55111512312578E-17 ) );
#229 = DIRECTION( '', ( 1.00000000000000, 0.00000000000000, 0.00000000000000 ) );
#230 = DIRECTION( '', ( 0.00000000000000, 1.00000000000000, 0.00000000000000 ) );
#231 = SURFACE_STYLE_FILL_AREA( #317 );
#232 = ORIENTED_EDGE( '', *, *, #318, .T. );
#233 = CARTESIAN_POINT( '', ( 0.0190500000000000, -0.0190500000000000, -5.55111512312578E-17 ) );
#234 = DIRECTION( '', ( 0.00000000000000, -1.00000000000000, 0.00000000000000 ) );
#235 = DIRECTION( '', ( 1.00000000000000, 0.00000000000000, 0.00000000000000 ) );
#236 = SURFACE_STYLE_FILL_AREA( #319 );
#237 = ORIENTED_EDGE( '', *, *, #320, .F. );
#238 = ORIENTED_EDGE( '', *, *, #321, .T. );
#239 = CARTESIAN_POINT( '', ( -8.67361737988404E-18, 0.00000000000000, -5.55111512312578E-17 ) );
#240 = DIRECTION( '', ( 1.00000000000000, -0.00000000000000, -0.00000000000000 ) );
#241 = DIRECTION( '', ( 0.00000000000000, 0.00000000000000, 1.00000000000000 ) );
#242 = SURFACE_STYLE_FILL_AREA( #322 );
#243 = ORIENTED_EDGE( '', *, *, #308, .T. );
#244 = ORIENTED_EDGE( '', *, *, #321, .F. );
#245 = CARTESIAN_POINT( '', ( -0.0152400000000000, 0.00000000000000, -5.55111512312578E-17 ) );
#246 = DIRECTION( '', ( -1.00000000000000, 0.00000000000000, 0.00000000000000 ) );
#247 = DIRECTION( '', ( 0.00000000000000, -1.00000000000000, 0.00000000000000 ) );
#248 = SURFACE_STYLE_FILL_AREA( #323 );
#249 = ORIENTED_EDGE( '', *, *, #324, .F. );
#250 = ORIENTED_EDGE( '', *, *, #318, .F. );
#251 = CARTESIAN_POINT( '', ( 0.0190500000000000, -0.0190500000000000, -5.55111512312578E-17 ) );
#252 = DIRECTION( '', ( -0.00000000000000, 1.00000000000000, -0.00000000000000 ) );
#253 = DIRECTION( '', ( 0.00000000000000, 0.00000000000000, 1.00000000000000 ) );
#254 = SURFACE_STYLE_FILL_AREA( #325 );
#255 = ORIENTED_EDGE( '', *, *, #326, .T. );
#256 = ORIENTED_EDGE( '', *, *, #320, .T. );
#257 = CARTESIAN_POINT( '', ( -8.67361737988404E-18, 0.00000000000000, -5.55111512312578E-17 ) );
#258 = DIRECTION( '', ( 1.00000000000000, 0.00000000000000, 0.00000000000000 ) );
#259 = DIRECTION( '', ( 0.00000000000000, 1.00000000000000, 0.00000000000000 ) );
#260 = SURFACE_STYLE_FILL_AREA( #327 );
#261 = ORIENTED_EDGE( '', *, *, #307, .T. );
#262 = CARTESIAN_POINT( '', ( -0.0177800000000000, 0.00000000000000, -5.55111512312578E-17 ) );
#263 = DIRECTION( '', ( -1.00000000000000, 0.00000000000000, 0.00000000000000 ) );
#264 = DIRECTION( '', ( 0.00000000000000, -1.00000000000000, 0.00000000000000 ) );
#265 = SURFACE_STYLE_FILL_AREA( #328 );
#266 = ORIENTED_EDGE( '', *, *, #329, .F. );
#267 = ORIENTED_EDGE( '', *, *, #313, .T. );
#268 = CARTESIAN_POINT( '', ( 0.0166370000000000, 0.00000000000000, -5.55111512312578E-17 ) );
#269 = DIRECTION( '', ( 1.00000000000000, 0.00000000000000, 0.00000000000000 ) );
#270 = DIRECTION( '', ( 0.00000000000000, 1.00000000000000, 0.00000000000000 ) );
#271 = SURFACE_STYLE_FILL_AREA( #330 );
#272 = ORIENTED_EDGE( '', *, *, #310, .F. );
#273 = ORIENTED_EDGE( '', *, *, #331, .T. );
#274 = CARTESIAN_POINT( '', ( 0.00254000000000000, 0.00000000000000, -5.55111512312578E-17 ) );
#275 = DIRECTION( '', ( 1.00000000000000, 0.00000000000000, 0.00000000000000 ) );
#276 = DIRECTION( '', ( 0.00000000000000, 1.00000000000000, 0.00000000000000 ) );
#277 = SURFACE_STYLE_FILL_AREA( #332 );
#278 = ORIENTED_EDGE( '', *, *, #333, .T. );
#279 = CARTESIAN_POINT( '', ( 0.0190500000000000, 0.0190500000000000, -5.55111512312578E-17 ) );
#280 = DIRECTION( '', ( 0.00000000000000, -1.00000000000000, 0.00000000000000 ) );
#281 = DIRECTION( '', ( 1.00000000000000, 0.00000000000000, 0.00000000000000 ) );
#282 = SURFACE_STYLE_FILL_AREA( #334 );
#283 = ORIENTED_EDGE( '', *, *, #335, .T. );
#284 = ORIENTED_EDGE( '', *, *, #324, .T. );
#285 = ORIENTED_EDGE( '', *, *, #312, .F. );
#286 = ORIENTED_EDGE( '', *, *, #316, .T. );
#287 = ORIENTED_EDGE( '', *, *, #314, .F. );
#288 = ORIENTED_EDGE( '', *, *, #329, .T. );
#289 = CARTESIAN_POINT( '', ( 0.0190500000000000, -0.0190500000000000, -5.55111512312578E-17 ) );
#290 = DIRECTION( '', ( -0.00000000000000, -1.00000000000000, -0.00000000000000 ) );
#291 = DIRECTION( '', ( 0.00000000000000, 0.00000000000000, 1.00000000000000 ) );
#292 = SURFACE_STYLE_FILL_AREA( #336 );
#293 = VERTEX_POINT( '', #337 );
#294 = ORIENTED_EDGE( '', *, *, #331, .F. );
#295 = ORIENTED_EDGE( '', *, *, #326, .F. );
#296 = CARTESIAN_POINT( '', ( 0.00127000000000000, 0.00000000000000, -5.55111512312578E-17 ) );
#297 = DIRECTION( '', ( 1.00000000000000, 0.00000000000000, 0.00000000000000 ) );
#298 = DIRECTION( '', ( 0.00000000000000, 0.00000000000000, -1.00000000000000 ) );
#299 = SURFACE_STYLE_FILL_AREA( #338 );
#300 = ORIENTED_EDGE( '', *, *, #333, .F. );
#301 = ORIENTED_EDGE( '', *, *, #335, .F. );
#302 = CARTESIAN_POINT( '', ( 0.0190500000000000, 0.0177800000000000, -5.55111512312578E-17 ) );
#303 = DIRECTION( '', ( 0.00000000000000, -1.00000000000000, -0.00000000000000 ) );
#304 = DIRECTION( '', ( 0.00000000000000, 0.00000000000000, -1.00000000000000 ) );
#305 = FILL_AREA_STYLE( '', ( #339 ) );
#306 = CARTESIAN_POINT( '', ( -0.0165100000000000, 0.00000000000000, 0.00888999999999994 ) );
#307 = EDGE_CURVE( '', #340, #340, #341, .T. );
#308 = EDGE_CURVE( '', #342, #342, #343, .F. );
#309 = FILL_AREA_STYLE( '', ( #344 ) );
#310 = EDGE_CURVE( '', #345, #345, #346, .T. );
#311 = EDGE_CURVE( '', #347, #348, #349, .T. );
#312 = EDGE_CURVE( '', #347, #350, #351, .T. );
#313 = EDGE_CURVE( '', #352, #350, #353, .T. );
#314 = EDGE_CURVE( '', #352, #348, #354, .F. );
#315 = FILL_AREA_STYLE( '', ( #355 ) );
#316 = EDGE_CURVE( '', #347, #348, #356, .T. );
#317 = FILL_AREA_STYLE( '', ( #357 ) );
#318 = EDGE_CURVE( '', #358, #358, #359, .T. );
#319 = FILL_AREA_STYLE( '', ( #360 ) );
#320 = EDGE_CURVE( '', #361, #361, #362, .T. );
#321 = EDGE_CURVE( '', #363, #363, #364, .T. );
#322 = FILL_AREA_STYLE( '', ( #365 ) );
#323 = FILL_AREA_STYLE( '', ( #366 ) );
#324 = EDGE_CURVE( '', #367, #367, #368, .F. );
#325 = FILL_AREA_STYLE( '', ( #369 ) );
#326 = EDGE_CURVE( '', #370, #370, #371, .F. );
#327 = FILL_AREA_STYLE( '', ( #372 ) );
#328 = FILL_AREA_STYLE( '', ( #373 ) );
#329 = EDGE_CURVE( '', #352, #350, #374, .F. );
#330 = FILL_AREA_STYLE( '', ( #375 ) );
#331 = EDGE_CURVE( '', #376, #376, #377, .T. );
#332 = FILL_AREA_STYLE( '', ( #378 ) );
#333 = EDGE_CURVE( '', #379, #379, #380, .F. );
#334 = FILL_AREA_STYLE( '', ( #381 ) );
#335 = EDGE_CURVE( '', #382, #382, #383, .T. );
#336 = FILL_AREA_STYLE( '', ( #384 ) );
#337 = CARTESIAN_POINT( '', ( 0.00127000000000000, 0.00000000000000, -0.00889000000000006 ) );
#338 = FILL_AREA_STYLE( '', ( #385 ) );
#339 = FILL_AREA_STYLE_COLOUR( '', #386 );
#340 = VERTEX_POINT( '', #387 );
#341 = CIRCLE( '', #388, 0.00762000000000000 );
#342 = VERTEX_POINT( '', #389 );
#343 = CIRCLE( '', #390, 0.00762000000000000 );
#344 = FILL_AREA_STYLE_COLOUR( '', #391 );
#345 = VERTEX_POINT( '', #392 );
#346 = CIRCLE( '', #393, 0.00635000000000000 );
#347 = VERTEX_POINT( '', #394 );
#348 = VERTEX_POINT( '', #395 );
#349 = CIRCLE( '', #396, 0.00635000000000000 );
#350 = VERTEX_POINT( '', #397 );
#351 = ELLIPSE( '', #398, 0.00898025610000000, 0.00635000000000000 );
#352 = VERTEX_POINT( '', #399 );
#353 = CIRCLE( '', #400, 0.00635000000000000 );
#354 = ELLIPSE( '', #401, 0.00898025610000000, 0.00635000000000000 );
#355 = FILL_AREA_STYLE_COLOUR( '', #402 );
#356 = LINE( '', #403, #404 );
#357 = FILL_AREA_STYLE_COLOUR( '', #405 );
#358 = VERTEX_POINT( '', #406 );
#359 = CIRCLE( '', #407, 0.00508000000000000 );
#360 = FILL_AREA_STYLE_COLOUR( '', #408 );
#361 = VERTEX_POINT( '', #409 );
#362 = CIRCLE( '', #410, 0.00635000000000000 );
#363 = VERTEX_POINT( '', #411 );
#364 = CIRCLE( '', #412, 0.00635000000000000 );
#365 = FILL_AREA_STYLE_COLOUR( '', #413 );
#366 = FILL_AREA_STYLE_COLOUR( '', #414 );
#367 = VERTEX_POINT( '', #415 );
#368 = CIRCLE( '', #416, 0.00635000000000000 );
#369 = FILL_AREA_STYLE_COLOUR( '', #417 );
#370 = VERTEX_POINT( '', #418 );
#371 = CIRCLE( '', #419, 0.00762000000000000 );
#372 = FILL_AREA_STYLE_COLOUR( '', #420 );
#373 = FILL_AREA_STYLE_COLOUR( '', #421 );
#374 = LINE( '', #422, #423 );
#375 = FILL_AREA_STYLE_COLOUR( '', #424 );
#376 = VERTEX_POINT( '', #425 );
#377 = CIRCLE( '', #426, 0.00762000000000000 );
#378 = FILL_AREA_STYLE_COLOUR( '', #427 );
#379 = VERTEX_POINT( '', #428 );
#380 = CIRCLE( '', #429, 0.00508000000000000 );
#381 = FILL_AREA_STYLE_COLOUR( '', #430 );
#382 = VERTEX_POINT( '', #431 );
#383 = CIRCLE( '', #432, 0.00635000000000000 );
#384 = FILL_AREA_STYLE_COLOUR( '', #433 );
#385 = FILL_AREA_STYLE_COLOUR( '', #434 );
#386 = COLOUR_RGB( '', 0.262745112200000, 0.282352954100000, 0.301960796100000 );
#387 = CARTESIAN_POINT( '', ( -0.0177800000000000, 0.00000000000000, 0.00761999999999994 ) );
#388 = AXIS2_PLACEMENT_3D( '', #435, #436, #437 );
#389 = CARTESIAN_POINT( '', ( -0.0152400000000000, 0.00000000000000, 0.00761999999999994 ) );
#390 = AXIS2_PLACEMENT_3D( '', #438, #439, #440 );
#391 = COLOUR_RGB( '', 0.262745112200000, 0.282352954100000, 0.301960796100000 );
#392 = CARTESIAN_POINT( '', ( 0.00254000000000000, 0.00635000000000000, -5.55111512312578E-17 ) );
#393 = AXIS2_PLACEMENT_3D( '', #441, #442, #443 );
#394 = CARTESIAN_POINT( '', ( 0.0166370000000000, -0.00241300000000000, -0.00587366418856242 ) );
#395 = CARTESIAN_POINT( '', ( 0.0166370000000000, 0.00241300000000000, -0.00587366418856242 ) );
#396 = AXIS2_PLACEMENT_3D( '', #444, #445, #446 );
#397 = CARTESIAN_POINT( '', ( 0.0166370000000000, -0.00241300000000000, 0.00587366418856231 ) );
#398 = AXIS2_PLACEMENT_3D( '', #447, #448, #449 );
#399 = CARTESIAN_POINT( '', ( 0.0166370000000000, 0.00241300000000000, 0.00587366418856231 ) );
#400 = AXIS2_PLACEMENT_3D( '', #450, #451, #452 );
#401 = AXIS2_PLACEMENT_3D( '', #453, #454, #455 );
#402 = COLOUR_RGB( '', 0.262745112200000, 0.282352954100000, 0.301960796100000 );
#403 = CARTESIAN_POINT( '', ( 0.0166370000000000, -0.0190500000000000, -0.00587366418856242 ) );
#404 = VECTOR( '', #456, 1.00000000000000 );
#405 = COLOUR_RGB( '', 0.262745112200000, 0.282352954100000, 0.301960796100000 );
#406 = CARTESIAN_POINT( '', ( 0.0190500000000000, -0.0190500000000000, -0.00508000000000006 ) );
#407 = AXIS2_PLACEMENT_3D( '', #457, #458, #459 );
#408 = COLOUR_RGB( '', 0.262745112200000, 0.282352954100000, 0.301960796100000 );
#409 = CARTESIAN_POINT( '', ( -8.67361737988404E-18, 0.00635000000000000, -5.55111512312578E-17 ) );
#410 = AXIS2_PLACEMENT_3D( '', #460, #461, #462 );
#411 = CARTESIAN_POINT( '', ( -0.0152400000000000, 0.00635000000000000, -5.55111512312578E-17 ) );
#412 = AXIS2_PLACEMENT_3D( '', #463, #464, #465 );
#413 = COLOUR_RGB( '', 0.262745112200000, 0.282352954100000, 0.301960796100000 );
#414 = COLOUR_RGB( '', 0.262745112200000, 0.282352954100000, 0.301960796100000 );
#415 = CARTESIAN_POINT( '', ( 0.0190500000000000, -0.0177800000000000, -0.00635000000000006 ) );
#416 = AXIS2_PLACEMENT_3D( '', #466, #467, #468 );
#417 = COLOUR_RGB( '', 0.262745112200000, 0.282352954100000, 0.301960796100000 );
#418 = CARTESIAN_POINT( '', ( -8.67361737988404E-18, 0.00000000000000, -0.00762000000000006 ) );
#419 = AXIS2_PLACEMENT_3D( '', #469, #470, #471 );
#420 = COLOUR_RGB( '', 0.262745112200000, 0.282352954100000, 0.301960796100000 );
#421 = COLOUR_RGB( '', 0.262745112200000, 0.282352954100000, 0.301960796100000 );
#422 = CARTESIAN_POINT( '', ( 0.0166370000000000, -0.0190500000000000, 0.00587366418856231 ) );
#423 = VECTOR( '', #472, 1.00000000000000 );
#424 = COLOUR_RGB( '', 0.262745112200000, 0.282352954100000, 0.301960796100000 );
#425 = CARTESIAN_POINT( '', ( 0.00254000000000000, 0.00000000000000, -0.00762000000000006 ) );
#426 = AXIS2_PLACEMENT_3D( '', #473, #474, #475 );
#427 = COLOUR_RGB( '', 0.262745112200000, 0.282352954100000, 0.301960796100000 );
#428 = CARTESIAN_POINT( '', ( 0.0190500000000000, 0.0190500000000000, -0.00508000000000006 ) );
#429 = AXIS2_PLACEMENT_3D( '', #476, #477, #478 );
#430 = COLOUR_RGB( '', 0.262745112200000, 0.282352954100000, 0.301960796100000 );
#431 = CARTESIAN_POINT( '', ( 0.0190500000000000, 0.0177800000000000, -0.00635000000000006 ) );
#432 = AXIS2_PLACEMENT_3D( '', #479, #480, #481 );
#433 = COLOUR_RGB( '', 0.262745112200000, 0.282352954100000, 0.301960796100000 );
#434 = COLOUR_RGB( '', 0.262745112200000, 0.282352954100000, 0.301960796100000 );
#435 = CARTESIAN_POINT( '', ( -0.0177800000000000, 0.00000000000000, -5.55111512312578E-17 ) );
#436 = DIRECTION( '', ( -1.00000000000000, 0.00000000000000, 0.00000000000000 ) );
#437 = DIRECTION( '', ( 0.00000000000000, 0.00000000000000, 1.00000000000000 ) );
#438 = CARTESIAN_POINT( '', ( -0.0152400000000000, 0.00000000000000, -5.55111512312578E-17 ) );
#439 = DIRECTION( '', ( -1.00000000000000, 0.00000000000000, 0.00000000000000 ) );
#440 = DIRECTION( '', ( 0.00000000000000, 0.00000000000000, 1.00000000000000 ) );
#441 = CARTESIAN_POINT( '', ( 0.00254000000000000, 0.00000000000000, -5.55111512312578E-17 ) );
#442 = DIRECTION( '', ( 1.00000000000000, 0.00000000000000, 0.00000000000000 ) );
#443 = DIRECTION( '', ( 0.00000000000000, 1.00000000000000, 0.00000000000000 ) );
#444 = CARTESIAN_POINT( '', ( 0.0166370000000000, 0.00000000000000, -5.55111512312578E-17 ) );
#445 = DIRECTION( '', ( 1.00000000000000, 0.00000000000000, 0.00000000000000 ) );
#446 = DIRECTION( '', ( 0.00000000000000, 1.00000000000000, 0.00000000000000 ) );
#447 = CARTESIAN_POINT( '', ( 0.0190500000000000, -1.73472347597680E-18, -5.55111512312578E-17 ) );
#448 = DIRECTION( '', ( -0.707106781186548, 0.707106781186548, 0.00000000000000 ) );
#449 = DIRECTION( '', ( 0.707106781186547, 0.707106781186547, 0.00000000000000 ) );
#450 = CARTESIAN_POINT( '', ( 0.0166370000000000, 0.00000000000000, -5.55111512312578E-17 ) );
#451 = DIRECTION( '', ( 1.00000000000000, 0.00000000000000, 0.00000000000000 ) );
#452 = DIRECTION( '', ( 0.00000000000000, 1.00000000000000, 0.00000000000000 ) );
#453 = CARTESIAN_POINT( '', ( 0.0190500000000000, -1.73472347597680E-18, -5.55111512312578E-17 ) );
#454 = DIRECTION( '', ( 0.707106781186548, 0.707106781186548, 0.00000000000000 ) );
#455 = DIRECTION( '', ( -0.707106781186547, 0.707106781186547, 0.00000000000000 ) );
#456 = DIRECTION( '', ( 0.00000000000000, 1.00000000000000, 0.00000000000000 ) );
#457 = CARTESIAN_POINT( '', ( 0.0190500000000000, -0.0190500000000000, -5.55111512312578E-17 ) );
#458 = DIRECTION( '', ( 0.00000000000000, -1.00000000000000, 0.00000000000000 ) );
#459 = DIRECTION( '', ( 0.00000000000000, 0.00000000000000, -1.00000000000000 ) );
#460 = CARTESIAN_POINT( '', ( -8.67361737988404E-18, 0.00000000000000, -5.55111512312578E-17 ) );
#461 = DIRECTION( '', ( 1.00000000000000, 0.00000000000000, 0.00000000000000 ) );
#462 = DIRECTION( '', ( 0.00000000000000, 1.00000000000000, 0.00000000000000 ) );
#463 = CARTESIAN_POINT( '', ( -0.0152400000000000, 0.00000000000000, -5.55111512312578E-17 ) );
#464 = DIRECTION( '', ( 1.00000000000000, 0.00000000000000, 0.00000000000000 ) );
#465 = DIRECTION( '', ( 0.00000000000000, 1.00000000000000, 0.00000000000000 ) );
#466 = CARTESIAN_POINT( '', ( 0.0190500000000000, -0.0177800000000000, -5.55111512312578E-17 ) );
#467 = DIRECTION( '', ( 0.00000000000000, -1.00000000000000, 0.00000000000000 ) );
#468 = DIRECTION( '', ( 0.00000000000000, 0.00000000000000, -1.00000000000000 ) );
#469 = CARTESIAN_POINT( '', ( -8.67361737988404E-18, 0.00000000000000, -5.55111512312578E-17 ) );
#470 = DIRECTION( '', ( 1.00000000000000, 0.00000000000000, 0.00000000000000 ) );
#471 = DIRECTION( '', ( 0.00000000000000, 0.00000000000000, -1.00000000000000 ) );
#472 = DIRECTION( '', ( 0.00000000000000, 1.00000000000000, 0.00000000000000 ) );
#473 = CARTESIAN_POINT( '', ( 0.00254000000000000, 0.00000000000000, -5.55111512312578E-17 ) );
#474 = DIRECTION( '', ( 1.00000000000000, 0.00000000000000, 0.00000000000000 ) );
#475 = DIRECTION( '', ( 0.00000000000000, 0.00000000000000, -1.00000000000000 ) );
#476 = CARTESIAN_POINT( '', ( 0.0190500000000000, 0.0190500000000000, -5.55111512312578E-17 ) );
#477 = DIRECTION( '', ( 0.00000000000000, -1.00000000000000, 0.00000000000000 ) );
#478 = DIRECTION( '', ( 0.00000000000000, 0.00000000000000, -1.00000000000000 ) );
#479 = CARTESIAN_POINT( '', ( 0.0190500000000000, 0.0177800000000000, -5.55111512312578E-17 ) );
#480 = DIRECTION( '', ( 0.00000000000000, -1.00000000000000, 0.00000000000000 ) );
#481 = DIRECTION( '', ( 0.00000000000000, 0.00000000000000, -1.00000000000000 ) );
ENDSEC;
END-ISO-10303-21;
