ISO-10303-21;
HEADER;
FILE_DESCRIPTION (( 'STEP AP203' ),
    '1' );
FILE_NAME ('CouterWeightFrame_Default_sldprt.STEP',
    '2019-04-11T17:56:27',
    ( '' ),
    ( '' ),
    'SwSTEP 2.0',
    'SolidWorks 2017',
    '' );
FILE_SCHEMA (( 'CONFIG_CONTROL_DESIGN' ));
ENDSEC;

DATA;
#1 = VECTOR ( 'NONE', #91, 1000.000000000000000 ) ;
#2 = VECTOR ( 'NONE', #59, 1000.000000000000000 ) ;
#3 = CARTESIAN_POINT ( 'NONE',  ( 60.00000000000000000, 168.2400000000000100, -1440.000000000000000 ) ) ;
#4 = CARTESIAN_POINT ( 'NONE',  ( 0.0000000000000000000, 168.2400000000000100, -2.220446049250315100E-013 ) ) ;
#5 = EDGE_LOOP ( 'NONE', ( #234, #233, #318, #211 ) ) ;
#6 = DIRECTION ( 'NONE',  ( 0.0000000000000000000, 0.0000000000000000000, -1.000000000000000000 ) ) ;
#7 = VERTEX_POINT ( 'NONE', #3 ) ;
#8 = DIRECTION ( 'NONE',  ( 1.000000000000000000, 0.0000000000000000000, -3.421685919329633800E-016 ) ) ;
#9 = CC_DESIGN_APPROVAL ( #231, ( #356 ) ) ;
#10 = CARTESIAN_POINT ( 'NONE',  ( 0.0000000000000000000, 168.2400000000000100, 0.0000000000000000000 ) ) ;
#11 = UNCERTAINTY_MEASURE_WITH_UNIT (LENGTH_MEASURE( 1.000000000000000100E-005 ), #181, 'distance_accuracy_value', 'NONE');
#12 = ADVANCED_BREP_SHAPE_REPRESENTATION ( 'CouterWeightFrame_Default_sldprt', ( #132, #159 ), #157 ) ;
#13 = APPROVAL_ROLE ( '' ) ;
#14 = LINE ( 'NONE', #175, #215 ) ;
#15 = APPLICATION_PROTOCOL_DEFINITION ( 'international standard', 'config_control_design', 1994, #302 ) ;
#16 = APPLICATION_PROTOCOL_DEFINITION ( 'international standard', 'config_control_design', 1994, #151 ) ;
#17 = ADVANCED_FACE ( 'NONE', ( #160 ), #307, .F. ) ;
#18 = VERTEX_POINT ( 'NONE', #131 ) ;
#19 = ORIENTED_EDGE ( 'NONE', *, *, #218, .T. ) ;
#20 = CC_DESIGN_APPROVAL ( #371, ( #332 ) ) ;
#21 = ORIENTED_EDGE ( 'NONE', *, *, #294, .T. ) ;
#22 = PRODUCT_RELATED_PRODUCT_CATEGORY ( 'detail', '', ( #230 ) ) ;
#23 = FACE_OUTER_BOUND ( 'NONE', #210, .T. ) ;
#24 = ORIENTED_EDGE ( 'NONE', *, *, #130, .T. ) ;
#25 = CARTESIAN_POINT ( 'NONE',  ( 973.4000000000000900, 0.0000000000000000000, -5.551115123125780700E-013 ) ) ;
#26 = CALENDAR_DATE ( 2019, 11, 4 ) ;
#27 = VECTOR ( 'NONE', #8, 1000.000000000000000 ) ;
#28 = LINE ( 'NONE', #115, #167 ) ;
#29 = PLANE ( 'NONE',  #343 ) ;
#30 = CARTESIAN_POINT ( 'NONE',  ( 60.00000000000000000, 168.2400000000000100, -60.00000000000000000 ) ) ;
#31 = DIRECTION ( 'NONE',  ( 0.0000000000000000000, 1.000000000000000000, 0.0000000000000000000 ) ) ;
#32 = LINE ( 'NONE', #251, #328 ) ;
#33 = ORIENTED_EDGE ( 'NONE', *, *, #226, .T. ) ;
#34 = CC_DESIGN_PERSON_AND_ORGANIZATION_ASSIGNMENT ( #333, #123, ( #92 ) ) ;
#35 = CARTESIAN_POINT ( 'NONE',  ( 60.00000000000000000, 0.0000000000000000000, -60.00000000000000000 ) ) ;
#36 = CC_DESIGN_PERSON_AND_ORGANIZATION_ASSIGNMENT ( #366, #268, ( #332 ) ) ;
#37 = APPROVAL_DATE_TIME ( #252, #271 ) ;
#38 = ORIENTED_EDGE ( 'NONE', *, *, #257, .T. ) ;
#39 = ORIENTED_EDGE ( 'NONE', *, *, #84, .F. ) ;
#40 = VERTEX_POINT ( 'NONE', #53 ) ;
#41 = PERSON_AND_ORGANIZATION ( #320, #153 ) ;
#42 = ADVANCED_FACE ( 'NONE', ( #188 ), #29, .T. ) ;
#43 = CLOSED_SHELL ( 'NONE', ( #101, #70, #42, #74, #305, #331, #17, #365, #103, #161 ) ) ;
#44 = AXIS2_PLACEMENT_3D ( 'NONE', #25, #114, #227 ) ;
#45 = ORIENTED_EDGE ( 'NONE', *, *, #351, .T. ) ;
#46 = ORIENTED_EDGE ( 'NONE', *, *, #311, .F. ) ;
#47 = CALENDAR_DATE ( 2019, 11, 4 ) ;
#48 = LINE ( 'NONE', #176, #27 ) ;
#49 = PLANE ( 'NONE',  #301 ) ;
#50 = AXIS2_PLACEMENT_3D ( 'NONE', #321, #148, #317 ) ;
#51 = ORIENTED_EDGE ( 'NONE', *, *, #149, .T. ) ;
#52 = PLANE ( 'NONE',  #189 ) ;
#53 = CARTESIAN_POINT ( 'NONE',  ( 913.3999999999999800, 168.2400000000000100, -60.00000000000000000 ) ) ;
#54 = DIRECTION ( 'NONE',  ( -1.000000000000000000, 0.0000000000000000000, 0.0000000000000000000 ) ) ;
#55 = PERSON_AND_ORGANIZATION ( #320, #153 ) ;
#56 = ORIENTED_EDGE ( 'NONE', *, *, #77, .T. ) ;
#57 = ORIENTED_EDGE ( 'NONE', *, *, #213, .T. ) ;
#58 = CARTESIAN_POINT ( 'NONE',  ( 913.3999999999999800, 168.2400000000000100, -60.00000000000000000 ) ) ;
#59 = DIRECTION ( 'NONE',  ( -1.000000000000000000, 0.0000000000000000000, 0.0000000000000000000 ) ) ;
#60 = EDGE_LOOP ( 'NONE', ( #353, #21, #165, #19 ) ) ;
#61 = DIRECTION ( 'NONE',  ( -0.0000000000000000000, -1.000000000000000000, -0.0000000000000000000 ) ) ;
#62 = DIRECTION ( 'NONE',  ( 1.000000000000000000, 0.0000000000000000000, 0.0000000000000000000 ) ) ;
#63 = CARTESIAN_POINT ( 'NONE',  ( 0.0000000000000000000, 0.0000000000000000000, 0.0000000000000000000 ) ) ;
#64 = DATE_AND_TIME ( #47, #75 ) ;
#65 = LOCAL_TIME ( 13, 56, 27.00000000000000000, #142 ) ;
#66 = MECHANICAL_CONTEXT ( 'NONE', #151, 'mechanical' ) ;
#67 = VECTOR ( 'NONE', #6, 1000.000000000000000 ) ;
#68 = ORIENTED_EDGE ( 'NONE', *, *, #257, .F. ) ;
#69 = PERSON_AND_ORGANIZATION_ROLE ( 'design_owner' ) ;
#70 = ADVANCED_FACE ( 'NONE', ( #243 ), #190, .T. ) ;
#71 = LINE ( 'NONE', #342, #98 ) ;
#72 = ORIENTED_EDGE ( 'NONE', *, *, #84, .T. ) ;
#73 = CC_DESIGN_DATE_AND_TIME_ASSIGNMENT ( #203, #326, ( #332 ) ) ;
#74 = ADVANCED_FACE ( 'NONE', ( #303 ), #86, .T. ) ;
#75 = LOCAL_TIME ( 13, 56, 27.00000000000000000, #191 ) ;
#76 = LINE ( 'NONE', #58, #2 ) ;
#77 = EDGE_CURVE ( 'NONE', #198, #193, #360, .T. ) ;
#78 = FACE_OUTER_BOUND ( 'NONE', #266, .T. ) ;
#79 = ORIENTED_EDGE ( 'NONE', *, *, #358, .T. ) ;
#80 = CARTESIAN_POINT ( 'NONE',  ( 973.4000000000000900, 0.0000000000000000000, -5.551115123125780700E-013 ) ) ;
#81 = DIRECTION ( 'NONE',  ( -0.0000000000000000000, -1.000000000000000000, -0.0000000000000000000 ) ) ;
#82 = CARTESIAN_POINT ( 'NONE',  ( 973.4000000000000900, 168.2400000000000100, -1500.000000000000000 ) ) ;
#83 = DIRECTION ( 'NONE',  ( 0.0000000000000000000, 1.000000000000000000, 0.0000000000000000000 ) ) ;
#84 = EDGE_CURVE ( 'NONE', #274, #134, #239, .T. ) ;
#85 = LINE ( 'NONE', #229, #370 ) ;
#86 = PLANE ( 'NONE',  #97 ) ;
#87 = DIRECTION ( 'NONE',  ( 0.0000000000000000000, -0.0000000000000000000, 1.000000000000000000 ) ) ;
#88 = CARTESIAN_POINT ( 'NONE',  ( 973.4000000000000900, 0.0000000000000000000, -1500.000000000000000 ) ) ;
#89 = LINE ( 'NONE', #339, #146 ) ;
#90 = VERTEX_POINT ( 'NONE', #141 ) ;
#91 = DIRECTION ( 'NONE',  ( 1.000000000000000000, 0.0000000000000000000, -3.421685919329633800E-016 ) ) ;
#92 = PRODUCT_DEFINITION_FORMATION_WITH_SPECIFIED_SOURCE ( 'ANY', '', #230, .NOT_KNOWN. ) ;
#93 = CARTESIAN_POINT ( 'NONE',  ( 0.0000000000000000000, 0.0000000000000000000, -1500.000000000000000 ) ) ;
#94 = CARTESIAN_POINT ( 'NONE',  ( 60.00000000000000000, 168.2400000000000100, -60.00000000000000000 ) ) ;
#95 = FACE_BOUND ( 'NONE', #249, .T. ) ;
#96 = ORIENTED_EDGE ( 'NONE', *, *, #267, .T. ) ;
#97 = AXIS2_PLACEMENT_3D ( 'NONE', #285, #224, #312 ) ;
#98 = VECTOR ( 'NONE', #195, 1000.000000000000000 ) ;
#99 = ORIENTED_EDGE ( 'NONE', *, *, #284, .T. ) ;
#100 = FACE_OUTER_BOUND ( 'NONE', #162, .T. ) ;
#101 = ADVANCED_FACE ( 'NONE', ( #78 ), #138, .T. ) ;
#102 = EDGE_CURVE ( 'NONE', #121, #193, #260, .T. ) ;
#103 = ADVANCED_FACE ( 'NONE', ( #23 ), #49, .F. ) ;
#104 = CALENDAR_DATE ( 2019, 11, 4 ) ;
#105 = VECTOR ( 'NONE', #255, 1000.000000000000000 ) ;
#106 = ORIENTED_EDGE ( 'NONE', *, *, #174, .F. ) ;
#107 = DIRECTION ( 'NONE',  ( -1.000000000000000000, 0.0000000000000000000, -0.0000000000000000000 ) ) ;
#108 = CARTESIAN_POINT ( 'NONE',  ( 973.4000000000000900, 0.0000000000000000000, -1500.000000000000000 ) ) ;
#109 = EDGE_CURVE ( 'NONE', #205, #18, #246, .T. ) ;
#110 = APPROVAL_PERSON_ORGANIZATION ( #362, #231, #179 ) ;
#111 = ORIENTED_EDGE ( 'NONE', *, *, #206, .T. ) ;
#112 = DIRECTION ( 'NONE',  ( -1.000000000000000000, 0.0000000000000000000, 0.0000000000000000000 ) ) ;
#113 = CARTESIAN_POINT ( 'NONE',  ( 913.3999999999999800, 0.0000000000000000000, -60.00000000000000000 ) ) ;
#114 = DIRECTION ( 'NONE',  ( 1.000000000000000000, -0.0000000000000000000, 0.0000000000000000000 ) ) ;
#115 = CARTESIAN_POINT ( 'NONE',  ( 0.0000000000000000000, 0.0000000000000000000, -2.220446049250315100E-013 ) ) ;
#116 = ORIENTED_EDGE ( 'NONE', *, *, #267, .F. ) ;
#117 = ORIENTED_EDGE ( 'NONE', *, *, #102, .F. ) ;
#118 = DIRECTION ( 'NONE',  ( 0.0000000000000000000, 0.0000000000000000000, 1.000000000000000000 ) ) ;
#119 = APPROVAL_PERSON_ORGANIZATION ( #182, #371, #13 ) ;
#120 = CARTESIAN_POINT ( 'NONE',  ( 60.00000000000000000, 0.0000000000000000000, -60.00000000000000000 ) ) ;
#121 = VERTEX_POINT ( 'NONE', #30 ) ;
#122 = CC_DESIGN_PERSON_AND_ORGANIZATION_ASSIGNMENT ( #220, #208, ( #356 ) ) ;
#123 = PERSON_AND_ORGANIZATION_ROLE ( 'creator' ) ;
#124 =( NAMED_UNIT ( * ) PLANE_ANGLE_UNIT ( ) SI_UNIT ( $, .RADIAN. ) );
#125 = LINE ( 'NONE', #289, #346 ) ;
#126 = ORIENTED_EDGE ( 'NONE', *, *, #77, .F. ) ;
#127 = ORIENTED_EDGE ( 'NONE', *, *, #213, .F. ) ;
#128 = VECTOR ( 'NONE', #288, 1000.000000000000000 ) ;
#129 = EDGE_LOOP ( 'NONE', ( #221, #39, #135, #111 ) ) ;
#130 = EDGE_CURVE ( 'NONE', #205, #158, #89, .T. ) ;
#131 = CARTESIAN_POINT ( 'NONE',  ( 973.4000000000000900, 168.2400000000000100, -5.551115123125780700E-013 ) ) ;
#132 = MANIFOLD_SOLID_BREP ( 'Cut-Extrude1', #43 ) ;
#133 = SHAPE_DEFINITION_REPRESENTATION ( #292, #12 ) ;
#134 = VERTEX_POINT ( 'NONE', #194 ) ;
#135 = ORIENTED_EDGE ( 'NONE', *, *, #335, .T. ) ;
#136 = AXIS2_PLACEMENT_3D ( 'NONE', #10, #258, #87 ) ;
#137 = LINE ( 'NONE', #201, #300 ) ;
#138 = PLANE ( 'NONE',  #44 ) ;
#139 = DIRECTION ( 'NONE',  ( 1.000000000000000000, 0.0000000000000000000, -3.421685919329633800E-016 ) ) ;
#140 = DIRECTION ( 'NONE',  ( 1.000000000000000000, 0.0000000000000000000, 0.0000000000000000000 ) ) ;
#141 = CARTESIAN_POINT ( 'NONE',  ( 60.00000000000000000, 0.0000000000000000000, -1440.000000000000000 ) ) ;
#142 = COORDINATED_UNIVERSAL_TIME_OFFSET ( 5, 0, .BEHIND. ) ;
#143 = VECTOR ( 'NONE', #232, 1000.000000000000000 ) ;
#144 = CARTESIAN_POINT ( 'NONE',  ( 913.3999999999999800, 168.2400000000000100, -60.00000000000000000 ) ) ;
#145 = DIRECTION ( 'NONE',  ( 0.0000000000000000000, 0.0000000000000000000, 1.000000000000000000 ) ) ;
#146 = VECTOR ( 'NONE', #197, 1000.000000000000000 ) ;
#147 = ORIENTED_EDGE ( 'NONE', *, *, #185, .T. ) ;
#148 = DIRECTION ( 'NONE',  ( 0.0000000000000000000, 1.000000000000000000, 0.0000000000000000000 ) ) ;
#149 = EDGE_CURVE ( 'NONE', #7, #90, #32, .T. ) ;
#150 = CARTESIAN_POINT ( 'NONE',  ( 973.4000000000000900, 0.0000000000000000000, -5.551115123125780700E-013 ) ) ;
#151 = APPLICATION_CONTEXT ( 'configuration controlled 3d designs of mechanical parts and assemblies' ) ;
#152 = DATE_AND_TIME ( #26, #369 ) ;
#153 = ORGANIZATION ( 'UNSPECIFIED', 'UNSPECIFIED', '' ) ;
#154 =( NAMED_UNIT ( * ) SI_UNIT ( $, .STERADIAN. ) SOLID_ANGLE_UNIT ( ) );
#155 = VECTOR ( 'NONE', #354, 1000.000000000000000 ) ;
#156 = APPROVAL_STATUS ( 'not_yet_approved' ) ;
#157 =( GEOMETRIC_REPRESENTATION_CONTEXT ( 3 ) GLOBAL_UNCERTAINTY_ASSIGNED_CONTEXT ( ( #11 ) ) GLOBAL_UNIT_ASSIGNED_CONTEXT ( ( #181, #124, #154 ) ) REPRESENTATION_CONTEXT ( 'NONE', 'WORKASPACE' ) );
#158 = VERTEX_POINT ( 'NONE', #108 ) ;
#159 = AXIS2_PLACEMENT_3D ( 'NONE', #63, #357, #62 ) ;
#160 = FACE_OUTER_BOUND ( 'NONE', #248, .T. ) ;
#161 = ADVANCED_FACE ( 'NONE', ( #172 ), #52, .F. ) ;
#162 = EDGE_LOOP ( 'NONE', ( #178, #309, #186, #127 ) ) ;
#163 = COORDINATED_UNIVERSAL_TIME_OFFSET ( 5, 0, .BEHIND. ) ;
#164 = VECTOR ( 'NONE', #83, 1000.000000000000000 ) ;
#165 = ORIENTED_EDGE ( 'NONE', *, *, #240, .T. ) ;
#166 = VECTOR ( 'NONE', #118, 1000.000000000000000 ) ;
#167 = VECTOR ( 'NONE', #31, 1000.000000000000000 ) ;
#168 = DIRECTION ( 'NONE',  ( 1.000000000000000000, 0.0000000000000000000, -0.0000000000000000000 ) ) ;
#169 = CARTESIAN_POINT ( 'NONE',  ( 913.3999999999999800, 0.0000000000000000000, -1440.000000000000000 ) ) ;
#170 = AXIS2_PLACEMENT_3D ( 'NONE', #94, #242, #359 ) ;
#171 = DATE_AND_TIME ( #104, #299 ) ;
#172 = FACE_OUTER_BOUND ( 'NONE', #216, .T. ) ;
#173 = VERTEX_POINT ( 'NONE', #82 ) ;
#174 = EDGE_CURVE ( 'NONE', #7, #329, #85, .T. ) ;
#175 = CARTESIAN_POINT ( 'NONE',  ( 973.4000000000000900, 0.0000000000000000000, -1500.000000000000000 ) ) ;
#176 = CARTESIAN_POINT ( 'NONE',  ( 0.0000000000000000000, 168.2400000000000100, -2.220446049250315100E-013 ) ) ;
#177 = PERSON_AND_ORGANIZATION ( #320, #153 ) ;
#178 = ORIENTED_EDGE ( 'NONE', *, *, #130, .F. ) ;
#179 = APPROVAL_ROLE ( '' ) ;
#180 = AXIS2_PLACEMENT_3D ( 'NONE', #256, #372, #139 ) ;
#181 =( LENGTH_UNIT ( ) NAMED_UNIT ( * ) SI_UNIT ( .MILLI., .METRE. ) );
#182 = PERSON_AND_ORGANIZATION ( #320, #153 ) ;
#183 = ORIENTED_EDGE ( 'NONE', *, *, #351, .F. ) ;
#184 = CALENDAR_DATE ( 2019, 11, 4 ) ;
#185 = EDGE_CURVE ( 'NONE', #18, #173, #71, .T. ) ;
#186 = ORIENTED_EDGE ( 'NONE', *, *, #335, .F. ) ;
#187 = VECTOR ( 'NONE', #273, 1000.000000000000000 ) ;
#188 = FACE_OUTER_BOUND ( 'NONE', #129, .T. ) ;
#189 = AXIS2_PLACEMENT_3D ( 'NONE', #313, #140, #283 ) ;
#190 = PLANE ( 'NONE',  #180 ) ;
#191 = COORDINATED_UNIVERSAL_TIME_OFFSET ( 5, 0, .BEHIND. ) ;
#192 = CALENDAR_DATE ( 2019, 11, 4 ) ;
#193 = VERTEX_POINT ( 'NONE', #35 ) ;
#194 = CARTESIAN_POINT ( 'NONE',  ( 0.0000000000000000000, 168.2400000000000100, -1500.000000000000000 ) ) ;
#195 = DIRECTION ( 'NONE',  ( 0.0000000000000000000, 0.0000000000000000000, -1.000000000000000000 ) ) ;
#196 = LINE ( 'NONE', #349, #352 ) ;
#197 = DIRECTION ( 'NONE',  ( 0.0000000000000000000, 0.0000000000000000000, -1.000000000000000000 ) ) ;
#198 = VERTEX_POINT ( 'NONE', #316 ) ;
#199 = VERTEX_POINT ( 'NONE', #4 ) ;
#200 = CARTESIAN_POINT ( 'NONE',  ( 973.4000000000000900, 168.2400000000000100, -1500.000000000000000 ) ) ;
#201 = CARTESIAN_POINT ( 'NONE',  ( 913.3999999999999800, 168.2400000000000100, -60.00000000000000000 ) ) ;
#202 = CARTESIAN_POINT ( 'NONE',  ( 913.3999999999999800, 168.2400000000000100, -1440.000000000000000 ) ) ;
#203 = DATE_AND_TIME ( #192, #281 ) ;
#204 = PLANE ( 'NONE',  #136 ) ;
#205 = VERTEX_POINT ( 'NONE', #150 ) ;
#206 = EDGE_CURVE ( 'NONE', #304, #199, #28, .T. ) ;
#207 = CARTESIAN_POINT ( 'NONE',  ( 60.00000000000000000, 168.2400000000000100, -60.00000000000000000 ) ) ;
#208 = PERSON_AND_ORGANIZATION_ROLE ( 'classification_officer' ) ;
#209 = PERSON_AND_ORGANIZATION_ROLE ( 'design_supplier' ) ;
#210 = EDGE_LOOP ( 'NONE', ( #56, #117, #279, #347 ) ) ;
#211 = ORIENTED_EDGE ( 'NONE', *, *, #102, .T. ) ;
#212 = APPROVAL_STATUS ( 'not_yet_approved' ) ;
#213 = EDGE_CURVE ( 'NONE', #158, #274, #14, .T. ) ;
#214 = EDGE_CURVE ( 'NONE', #40, #198, #137, .T. ) ;
#215 = VECTOR ( 'NONE', #262, 1000.000000000000000 ) ;
#216 = EDGE_LOOP ( 'NONE', ( #45, #244, #310, #96 ) ) ;
#217 = LINE ( 'NONE', #202, #259 ) ;
#218 = EDGE_CURVE ( 'NONE', #121, #7, #293, .T. ) ;
#219 = LINE ( 'NONE', #264, #143 ) ;
#220 = PERSON_AND_ORGANIZATION ( #320, #153 ) ;
#221 = ORIENTED_EDGE ( 'NONE', *, *, #245, .F. ) ;
#222 = ORIENTED_EDGE ( 'NONE', *, *, #245, .T. ) ;
#223 = DESIGN_CONTEXT ( 'detailed design', #302, 'design' ) ;
#224 = DIRECTION ( 'NONE',  ( 0.0000000000000000000, 0.0000000000000000000, -1.000000000000000000 ) ) ;
#225 = DIRECTION ( 'NONE',  ( 0.0000000000000000000, 0.0000000000000000000, 1.000000000000000000 ) ) ;
#226 = EDGE_CURVE ( 'NONE', #173, #134, #306, .T. ) ;
#227 = DIRECTION ( 'NONE',  ( 0.0000000000000000000, 0.0000000000000000000, -1.000000000000000000 ) ) ;
#228 = VECTOR ( 'NONE', #297, 1000.000000000000000 ) ;
#229 = CARTESIAN_POINT ( 'NONE',  ( 60.00000000000000000, 168.2400000000000100, -1440.000000000000000 ) ) ;
#230 = PRODUCT ( 'CouterWeightFrame_Default_sldprt', 'CouterWeightFrame_Default_sldprt', '', ( #66 ) ) ;
#231 = APPROVAL ( #270, 'UNSPECIFIED' ) ;
#232 = DIRECTION ( 'NONE',  ( 0.0000000000000000000, 0.0000000000000000000, 1.000000000000000000 ) ) ;
#233 = ORIENTED_EDGE ( 'NONE', *, *, #149, .F. ) ;
#234 = ORIENTED_EDGE ( 'NONE', *, *, #250, .T. ) ;
#235 = AXIS2_PLACEMENT_3D ( 'NONE', #368, #334, #107 ) ;
#236 = CARTESIAN_POINT ( 'NONE',  ( 913.3999999999999800, 168.2400000000000100, -1440.000000000000000 ) ) ;
#237 = CARTESIAN_POINT ( 'NONE',  ( 60.00000000000000000, 0.0000000000000000000, -1440.000000000000000 ) ) ;
#238 = CARTESIAN_POINT ( 'NONE',  ( 913.3999999999999800, 168.2400000000000100, -1440.000000000000000 ) ) ;
#239 = LINE ( 'NONE', #345, #278 ) ;
#240 = EDGE_CURVE ( 'NONE', #40, #121, #76, .T. ) ;
#241 = DIRECTION ( 'NONE',  ( 0.0000000000000000000, 0.0000000000000000000, 1.000000000000000000 ) ) ;
#242 = DIRECTION ( 'NONE',  ( -1.000000000000000000, 0.0000000000000000000, 0.0000000000000000000 ) ) ;
#243 = FACE_OUTER_BOUND ( 'NONE', #319, .T. ) ;
#244 = ORIENTED_EDGE ( 'NONE', *, *, #214, .F. ) ;
#245 = EDGE_CURVE ( 'NONE', #134, #199, #219, .T. ) ;
#246 = LINE ( 'NONE', #80, #164 ) ;
#247 = FACE_BOUND ( 'NONE', #60, .T. ) ;
#248 = EDGE_LOOP ( 'NONE', ( #38, #116, #106, #51 ) ) ;
#249 = EDGE_LOOP ( 'NONE', ( #183, #68, #348, #126 ) ) ;
#250 = EDGE_CURVE ( 'NONE', #193, #90, #337, .T. ) ;
#251 = CARTESIAN_POINT ( 'NONE',  ( 60.00000000000000000, 168.2400000000000100, -1440.000000000000000 ) ) ;
#252 = DATE_AND_TIME ( #184, #65 ) ;
#253 = DIRECTION ( 'NONE',  ( 0.0000000000000000000, 1.000000000000000000, 0.0000000000000000000 ) ) ;
#254 = ORIENTED_EDGE ( 'NONE', *, *, #206, .F. ) ;
#255 = DIRECTION ( 'NONE',  ( -0.0000000000000000000, -1.000000000000000000, -0.0000000000000000000 ) ) ;
#256 = CARTESIAN_POINT ( 'NONE',  ( 0.0000000000000000000, 0.0000000000000000000, -2.220446049250315100E-013 ) ) ;
#257 = EDGE_CURVE ( 'NONE', #90, #338, #286, .T. ) ;
#258 = DIRECTION ( 'NONE',  ( 0.0000000000000000000, 1.000000000000000000, 0.0000000000000000000 ) ) ;
#259 = VECTOR ( 'NONE', #291, 1000.000000000000000 ) ;
#260 = LINE ( 'NONE', #344, #105 ) ;
#261 = ORIENTED_EDGE ( 'NONE', *, *, #226, .F. ) ;
#262 = DIRECTION ( 'NONE',  ( -1.000000000000000000, 0.0000000000000000000, 0.0000000000000000000 ) ) ;
#263 = CARTESIAN_POINT ( 'NONE',  ( 0.0000000000000000000, 0.0000000000000000000, -2.220446049250315100E-013 ) ) ;
#264 = CARTESIAN_POINT ( 'NONE',  ( 0.0000000000000000000, 168.2400000000000100, -1500.000000000000000 ) ) ;
#265 = APPROVAL_PERSON_ORGANIZATION ( #41, #271, #298 ) ;
#266 = EDGE_LOOP ( 'NONE', ( #296, #287, #24, #79 ) ) ;
#267 = EDGE_CURVE ( 'NONE', #329, #338, #217, .T. ) ;
#268 = PERSON_AND_ORGANIZATION_ROLE ( 'creator' ) ;
#269 = PLANE ( 'NONE',  #170 ) ;
#270 = APPROVAL_STATUS ( 'not_yet_approved' ) ;
#271 = APPROVAL ( #156, 'UNSPECIFIED' ) ;
#272 = LINE ( 'NONE', #88, #187 ) ;
#273 = DIRECTION ( 'NONE',  ( 0.0000000000000000000, 1.000000000000000000, 0.0000000000000000000 ) ) ;
#274 = VERTEX_POINT ( 'NONE', #93 ) ;
#275 = CC_DESIGN_PERSON_AND_ORGANIZATION_ASSIGNMENT ( #55, #69, ( #230 ) ) ;
#276 = FACE_OUTER_BOUND ( 'NONE', #5, .T. ) ;
#277 = LINE ( 'NONE', #263, #1 ) ;
#278 = VECTOR ( 'NONE', #253, 1000.000000000000000 ) ;
#279 = ORIENTED_EDGE ( 'NONE', *, *, #240, .F. ) ;
#280 = DIRECTION ( 'NONE',  ( 1.000000000000000000, 0.0000000000000000000, 0.0000000000000000000 ) ) ;
#281 = LOCAL_TIME ( 13, 56, 27.00000000000000000, #323 ) ;
#282 = EDGE_LOOP ( 'NONE', ( #261, #364, #57, #72 ) ) ;
#283 = DIRECTION ( 'NONE',  ( 0.0000000000000000000, 0.0000000000000000000, -1.000000000000000000 ) ) ;
#284 = EDGE_CURVE ( 'NONE', #304, #205, #277, .T. ) ;
#285 = CARTESIAN_POINT ( 'NONE',  ( 973.4000000000000900, 0.0000000000000000000, -1500.000000000000000 ) ) ;
#286 = LINE ( 'NONE', #237, #128 ) ;
#287 = ORIENTED_EDGE ( 'NONE', *, *, #109, .F. ) ;
#288 = DIRECTION ( 'NONE',  ( 1.000000000000000000, 0.0000000000000000000, 0.0000000000000000000 ) ) ;
#289 = CARTESIAN_POINT ( 'NONE',  ( 0.0000000000000000000, 0.0000000000000000000, -1500.000000000000000 ) ) ;
#290 = CC_DESIGN_APPROVAL ( #271, ( #92 ) ) ;
#291 = DIRECTION ( 'NONE',  ( -0.0000000000000000000, -1.000000000000000000, -0.0000000000000000000 ) ) ;
#292 = PRODUCT_DEFINITION_SHAPE ( 'NONE', 'NONE',  #332 ) ;
#293 = LINE ( 'NONE', #207, #228 ) ;
#294 = EDGE_CURVE ( 'NONE', #329, #40, #327, .T. ) ;
#295 = CARTESIAN_POINT ( 'NONE',  ( 0.0000000000000000000, 0.0000000000000000000, -2.220446049250315100E-013 ) ) ;
#296 = ORIENTED_EDGE ( 'NONE', *, *, #185, .F. ) ;
#297 = DIRECTION ( 'NONE',  ( 0.0000000000000000000, 0.0000000000000000000, -1.000000000000000000 ) ) ;
#298 = APPROVAL_ROLE ( '' ) ;
#299 = LOCAL_TIME ( 13, 56, 27.00000000000000000, #341 ) ;
#300 = VECTOR ( 'NONE', #61, 1000.000000000000000 ) ;
#301 = AXIS2_PLACEMENT_3D ( 'NONE', #144, #315, #168 ) ;
#302 = APPLICATION_CONTEXT ( 'configuration controlled 3d designs of mechanical parts and assemblies' ) ;
#303 = FACE_OUTER_BOUND ( 'NONE', #282, .T. ) ;
#304 = VERTEX_POINT ( 'NONE', #295 ) ;
#305 = ADVANCED_FACE ( 'NONE', ( #95, #100 ), #322, .F. ) ;
#306 = LINE ( 'NONE', #200, #155 ) ;
#307 = PLANE ( 'NONE',  #235 ) ;
#308 = APPROVAL_DATE_TIME ( #64, #231 ) ;
#309 = ORIENTED_EDGE ( 'NONE', *, *, #284, .F. ) ;
#310 = ORIENTED_EDGE ( 'NONE', *, *, #294, .F. ) ;
#311 = EDGE_CURVE ( 'NONE', #199, #18, #48, .T. ) ;
#312 = DIRECTION ( 'NONE',  ( -1.000000000000000000, 0.0000000000000000000, -0.0000000000000000000 ) ) ;
#313 = CARTESIAN_POINT ( 'NONE',  ( 913.3999999999999800, 168.2400000000000100, -1440.000000000000000 ) ) ;
#314 = EDGE_LOOP ( 'NONE', ( #147, #33, #222, #367 ) ) ;
#315 = DIRECTION ( 'NONE',  ( 0.0000000000000000000, -0.0000000000000000000, 1.000000000000000000 ) ) ;
#316 = CARTESIAN_POINT ( 'NONE',  ( 913.3999999999999800, 0.0000000000000000000, -60.00000000000000000 ) ) ;
#317 = DIRECTION ( 'NONE',  ( 0.0000000000000000000, -0.0000000000000000000, 1.000000000000000000 ) ) ;
#318 = ORIENTED_EDGE ( 'NONE', *, *, #218, .F. ) ;
#319 = EDGE_LOOP ( 'NONE', ( #46, #254, #99, #361 ) ) ;
#320 = PERSON ( 'UNSPECIFIED', 'UNSPECIFIED', 'UNSPECIFIED', ('UNSPECIFIED'), ('UNSPECIFIED'), ('UNSPECIFIED') ) ;
#321 = CARTESIAN_POINT ( 'NONE',  ( 0.0000000000000000000, 0.0000000000000000000, 0.0000000000000000000 ) ) ;
#322 = PLANE ( 'NONE',  #50 ) ;
#323 = COORDINATED_UNIVERSAL_TIME_OFFSET ( 5, 0, .BEHIND. ) ;
#324 = SECURITY_CLASSIFICATION_LEVEL ( 'unclassified' ) ;
#325 = VECTOR ( 'NONE', #112, 1000.000000000000000 ) ;
#326 = DATE_TIME_ROLE ( 'creation_date' ) ;
#327 = LINE ( 'NONE', #236, #166 ) ;
#328 = VECTOR ( 'NONE', #81, 1000.000000000000000 ) ;
#329 = VERTEX_POINT ( 'NONE', #238 ) ;
#330 = CC_DESIGN_DATE_AND_TIME_ASSIGNMENT ( #152, #355, ( #356 ) ) ;
#331 = ADVANCED_FACE ( 'NONE', ( #247, #336 ), #204, .T. ) ;
#332 = PRODUCT_DEFINITION ( 'UNKNOWN', '', #92, #223 ) ;
#333 = PERSON_AND_ORGANIZATION ( #320, #153 ) ;
#334 = DIRECTION ( 'NONE',  ( 0.0000000000000000000, 0.0000000000000000000, -1.000000000000000000 ) ) ;
#335 = EDGE_CURVE ( 'NONE', #274, #304, #125, .T. ) ;
#336 = FACE_OUTER_BOUND ( 'NONE', #314, .T. ) ;
#337 = LINE ( 'NONE', #120, #67 ) ;
#338 = VERTEX_POINT ( 'NONE', #169 ) ;
#339 = CARTESIAN_POINT ( 'NONE',  ( 973.4000000000000900, 0.0000000000000000000, -5.551115123125780700E-013 ) ) ;
#340 = CC_DESIGN_PERSON_AND_ORGANIZATION_ASSIGNMENT ( #177, #209, ( #92 ) ) ;
#341 = COORDINATED_UNIVERSAL_TIME_OFFSET ( 5, 0, .BEHIND. ) ;
#342 = CARTESIAN_POINT ( 'NONE',  ( 973.4000000000000900, 168.2400000000000100, -5.551115123125780700E-013 ) ) ;
#343 = AXIS2_PLACEMENT_3D ( 'NONE', #373, #54, #225 ) ;
#344 = CARTESIAN_POINT ( 'NONE',  ( 60.00000000000000000, 168.2400000000000100, -60.00000000000000000 ) ) ;
#345 = CARTESIAN_POINT ( 'NONE',  ( 0.0000000000000000000, 0.0000000000000000000, -1500.000000000000000 ) ) ;
#346 = VECTOR ( 'NONE', #145, 1000.000000000000000 ) ;
#347 = ORIENTED_EDGE ( 'NONE', *, *, #214, .T. ) ;
#348 = ORIENTED_EDGE ( 'NONE', *, *, #250, .F. ) ;
#349 = CARTESIAN_POINT ( 'NONE',  ( 913.3999999999999800, 0.0000000000000000000, -1440.000000000000000 ) ) ;
#350 = CC_DESIGN_SECURITY_CLASSIFICATION ( #356, ( #92 ) ) ;
#351 = EDGE_CURVE ( 'NONE', #338, #198, #196, .T. ) ;
#352 = VECTOR ( 'NONE', #241, 1000.000000000000000 ) ;
#353 = ORIENTED_EDGE ( 'NONE', *, *, #174, .T. ) ;
#354 = DIRECTION ( 'NONE',  ( -1.000000000000000000, 0.0000000000000000000, 0.0000000000000000000 ) ) ;
#355 = DATE_TIME_ROLE ( 'classification_date' ) ;
#356 = SECURITY_CLASSIFICATION ( '', '', #324 ) ;
#357 = DIRECTION ( 'NONE',  ( 0.0000000000000000000, 0.0000000000000000000, 1.000000000000000000 ) ) ;
#358 = EDGE_CURVE ( 'NONE', #158, #173, #272, .T. ) ;
#359 = DIRECTION ( 'NONE',  ( 0.0000000000000000000, 0.0000000000000000000, 1.000000000000000000 ) ) ;
#360 = LINE ( 'NONE', #113, #325 ) ;
#361 = ORIENTED_EDGE ( 'NONE', *, *, #109, .T. ) ;
#362 = PERSON_AND_ORGANIZATION ( #320, #153 ) ;
#363 = APPROVAL_DATE_TIME ( #171, #371 ) ;
#364 = ORIENTED_EDGE ( 'NONE', *, *, #358, .F. ) ;
#365 = ADVANCED_FACE ( 'NONE', ( #276 ), #269, .F. ) ;
#366 = PERSON_AND_ORGANIZATION ( #320, #153 ) ;
#367 = ORIENTED_EDGE ( 'NONE', *, *, #311, .T. ) ;
#368 = CARTESIAN_POINT ( 'NONE',  ( 60.00000000000000000, 168.2400000000000100, -1440.000000000000000 ) ) ;
#369 = LOCAL_TIME ( 13, 56, 27.00000000000000000, #163 ) ;
#370 = VECTOR ( 'NONE', #280, 1000.000000000000000 ) ;
#371 = APPROVAL ( #212, 'UNSPECIFIED' ) ;
#372 = DIRECTION ( 'NONE',  ( 3.421685919329633800E-016, -0.0000000000000000000, 1.000000000000000000 ) ) ;
#373 = CARTESIAN_POINT ( 'NONE',  ( 0.0000000000000000000, 0.0000000000000000000, -1500.000000000000000 ) ) ;
ENDSEC;
END-ISO-10303-21;
