ISO-10303-21;
HEADER;
FILE_DESCRIPTION (( 'STEP AP203' ),
    '1' );
FILE_NAME ('CounterWeight_Default_sldprt.STEP',
    '2019-04-11T17:56:25',
    ( '' ),
    ( '' ),
    'SwSTEP 2.0',
    'SolidWorks 2017',
    '' );
FILE_SCHEMA (( 'CONFIG_CONTROL_DESIGN' ));
ENDSEC;

DATA;
#1 = APPROVAL_STATUS ( 'not_yet_approved' ) ;
#2 = ORIENTED_EDGE ( 'NONE', *, *, #266, .F. ) ;
#3 = CIRCLE ( 'NONE', #91, 30.00000000000000700 ) ;
#4 = ORIENTED_EDGE ( 'NONE', *, *, #111, .T. ) ;
#5 = ADVANCED_FACE ( 'NONE', ( #16 ), #273, .T. ) ;
#6 = EDGE_CURVE ( 'NONE', #76, #226, #162, .T. ) ;
#7 = AXIS2_PLACEMENT_3D ( 'NONE', #83, #344, #173 ) ;
#8 = VECTOR ( 'NONE', #348, 1000.000000000000000 ) ;
#9 = VECTOR ( 'NONE', #57, 1000.000000000000000 ) ;
#10 = ORIENTED_EDGE ( 'NONE', *, *, #212, .F. ) ;
#11 = EDGE_CURVE ( 'NONE', #127, #189, #309, .T. ) ;
#12 = DIRECTION ( 'NONE',  ( 0.0000000000000000000, 1.000000000000000000, 0.0000000000000000000 ) ) ;
#13 = VECTOR ( 'NONE', #216, 1000.000000000000000 ) ;
#14 = CLOSED_SHELL ( 'NONE', ( #38, #301, #36, #270, #70, #68, #358, #355, #210, #5 ) ) ;
#15 = DIRECTION ( 'NONE',  ( 1.000000000000000000, 0.0000000000000000000, -1.306144734853125400E-016 ) ) ;
#16 = FACE_OUTER_BOUND ( 'NONE', #156, .T. ) ;
#17 = DIRECTION ( 'NONE',  ( -1.000000000000000000, 0.0000000000000000000, 1.306144734853125600E-016 ) ) ;
#18 = DIRECTION ( 'NONE',  ( 0.0000000000000000000, 0.0000000000000000000, 1.000000000000000000 ) ) ;
#19 = VECTOR ( 'NONE', #140, 1000.000000000000000 ) ;
#20 = CARTESIAN_POINT ( 'NONE',  ( -425.0000000000000000, 120.0000000000000000, 77.50000000000011400 ) ) ;
#21 = AXIS2_PLACEMENT_3D ( 'NONE', #347, #33, #30 ) ;
#22 = LINE ( 'NONE', #371, #72 ) ;
#23 = DIRECTION ( 'NONE',  ( 0.0000000000000000000, 1.000000000000000000, 0.0000000000000000000 ) ) ;
#24 = VERTEX_POINT ( 'NONE', #303 ) ;
#25 = DIRECTION ( 'NONE',  ( 0.0000000000000000000, 0.0000000000000000000, 1.000000000000000000 ) ) ;
#26 =( LENGTH_UNIT ( ) NAMED_UNIT ( * ) SI_UNIT ( .MILLI., .METRE. ) );
#27 = APPLICATION_PROTOCOL_DEFINITION ( 'international standard', 'config_control_design', 1994, #377 ) ;
#28 = CALENDAR_DATE ( 2019, 11, 4 ) ;
#29 = CIRCLE ( 'NONE', #122, 30.00000000000000000 ) ;
#30 = DIRECTION ( 'NONE',  ( 0.0000000000000000000, 0.0000000000000000000, 1.000000000000000000 ) ) ;
#31 = ORIENTED_EDGE ( 'NONE', *, *, #125, .F. ) ;
#32 = PERSON_AND_ORGANIZATION_ROLE ( 'creator' ) ;
#33 = DIRECTION ( 'NONE',  ( 0.0000000000000000000, 1.000000000000000000, 0.0000000000000000000 ) ) ;
#34 = VECTOR ( 'NONE', #82, 1000.000000000000000 ) ;
#35 = ORIENTED_EDGE ( 'NONE', *, *, #176, .T. ) ;
#36 = ADVANCED_FACE ( 'NONE', ( #237 ), #161, .T. ) ;
#37 = ORIENTED_EDGE ( 'NONE', *, *, #11, .T. ) ;
#38 = ADVANCED_FACE ( 'NONE', ( #318 ), #336, .T. ) ;
#39 = AXIS2_PLACEMENT_3D ( 'NONE', #138, #227, #311 ) ;
#40 = COORDINATED_UNIVERSAL_TIME_OFFSET ( 5, 0, .BEHIND. ) ;
#41 = VERTEX_POINT ( 'NONE', #333 ) ;
#42 = CC_DESIGN_APPROVAL ( #218, ( #320 ) ) ;
#43 = SHAPE_DEFINITION_REPRESENTATION ( #234, #321 ) ;
#44 = LINE ( 'NONE', #20, #342 ) ;
#45 = ORIENTED_EDGE ( 'NONE', *, *, #293, .F. ) ;
#46 = CARTESIAN_POINT ( 'NONE',  ( 395.0000000000000600, -600.0000000000000000, 47.50000000000000700 ) ) ;
#47 = CARTESIAN_POINT ( 'NONE',  ( 395.0000000000000600, -600.0000000000000000, 47.50000000000000700 ) ) ;
#48 = ORIENTED_EDGE ( 'NONE', *, *, #266, .T. ) ;
#49 = CARTESIAN_POINT ( 'NONE',  ( -425.0000000000000000, 120.0000000000000000, -77.49999999999988600 ) ) ;
#50 = PRODUCT_RELATED_PRODUCT_CATEGORY ( 'detail', '', ( #157 ) ) ;
#51 = DIRECTION ( 'NONE',  ( 1.000000000000000000, 0.0000000000000000000, -1.306144734853125400E-016 ) ) ;
#52 = EDGE_CURVE ( 'NONE', #163, #77, #142, .T. ) ;
#53 = APPROVAL_PERSON_ORGANIZATION ( #129, #349, #233 ) ;
#54 = VERTEX_POINT ( 'NONE', #362 ) ;
#55 = VERTEX_POINT ( 'NONE', #166 ) ;
#56 = DIRECTION ( 'NONE',  ( 0.0000000000000000000, 0.0000000000000000000, -1.000000000000000000 ) ) ;
#57 = DIRECTION ( 'NONE',  ( 0.0000000000000000000, 0.0000000000000000000, 1.000000000000000000 ) ) ;
#58 = PLANE ( 'NONE',  #300 ) ;
#59 = DATE_AND_TIME ( #167, #364 ) ;
#60 = CARTESIAN_POINT ( 'NONE',  ( -395.0000000000000600, 120.0000000000000000, -47.49999999999989300 ) ) ;
#61 = ORIENTED_EDGE ( 'NONE', *, *, #322, .T. ) ;
#62 = DATE_TIME_ROLE ( 'classification_date' ) ;
#63 = COORDINATED_UNIVERSAL_TIME_OFFSET ( 5, 0, .BEHIND. ) ;
#64 = FACE_OUTER_BOUND ( 'NONE', #256, .T. ) ;
#65 = DIRECTION ( 'NONE',  ( -0.0000000000000000000, -1.000000000000000000, -0.0000000000000000000 ) ) ;
#66 = ORIENTED_EDGE ( 'NONE', *, *, #212, .T. ) ;
#67 = CC_DESIGN_PERSON_AND_ORGANIZATION_ASSIGNMENT ( #192, #239, ( #128 ) ) ;
#68 = ADVANCED_FACE ( 'NONE', ( #64 ), #98, .T. ) ;
#69 = EDGE_LOOP ( 'NONE', ( #240, #135, #365, #215 ) ) ;
#70 = ADVANCED_FACE ( 'NONE', ( #147 ), #363, .F. ) ;
#71 = COORDINATED_UNIVERSAL_TIME_OFFSET ( 5, 0, .BEHIND. ) ;
#72 = VECTOR ( 'NONE', #145, 1000.000000000000000 ) ;
#73 = ORIENTED_EDGE ( 'NONE', *, *, #271, .F. ) ;
#74 = CARTESIAN_POINT ( 'NONE',  ( -425.0000000000000000, -600.0000000000000000, 77.50000000000011400 ) ) ;
#75 = DIRECTION ( 'NONE',  ( 1.306144734853125600E-016, -0.0000000000000000000, 1.000000000000000000 ) ) ;
#76 = VERTEX_POINT ( 'NONE', #302 ) ;
#77 = VERTEX_POINT ( 'NONE', #306 ) ;
#78 = DIRECTION ( 'NONE',  ( 0.0000000000000000000, -0.0000000000000000000, 1.000000000000000000 ) ) ;
#79 = CC_DESIGN_DATE_AND_TIME_ASSIGNMENT ( #328, #62, ( #128 ) ) ;
#80 = CARTESIAN_POINT ( 'NONE',  ( -425.0000000000000000, -600.0000000000000000, -77.49999999999988600 ) ) ;
#81 = VECTOR ( 'NONE', #282, 1000.000000000000000 ) ;
#82 = DIRECTION ( 'NONE',  ( 0.0000000000000000000, 1.000000000000000000, 0.0000000000000000000 ) ) ;
#83 = CARTESIAN_POINT ( 'NONE',  ( -395.0000000000000000, 120.0000000000000000, 47.50000000000011400 ) ) ;
#84 = CARTESIAN_POINT ( 'NONE',  ( 395.0000000000000600, 120.0000000000000000, 47.50000000000000700 ) ) ;
#85 = CIRCLE ( 'NONE', #39, 30.00000000000000000 ) ;
#86 = ORIENTED_EDGE ( 'NONE', *, *, #158, .T. ) ;
#87 = APPROVAL_ROLE ( '' ) ;
#88 = EDGE_CURVE ( 'NONE', #77, #54, #225, .T. ) ;
#89 = MECHANICAL_CONTEXT ( 'NONE', #377, 'mechanical' ) ;
#90 = DESIGN_CONTEXT ( 'detailed design', #263, 'design' ) ;
#91 = AXIS2_PLACEMENT_3D ( 'NONE', #47, #275, #18 ) ;
#92 = VECTOR ( 'NONE', #15, 1000.000000000000000 ) ;
#93 = SECURITY_CLASSIFICATION_LEVEL ( 'unclassified' ) ;
#94 = UNCERTAINTY_MEASURE_WITH_UNIT (LENGTH_MEASURE( 1.000000000000000100E-005 ), #26, 'distance_accuracy_value', 'NONE');
#95 = CIRCLE ( 'NONE', #297, 30.00000000000000000 ) ;
#96 = ORIENTED_EDGE ( 'NONE', *, *, #238, .F. ) ;
#97 = VECTOR ( 'NONE', #251, 1000.000000000000000 ) ;
#98 = PLANE ( 'NONE',  #186 ) ;
#99 = APPROVAL_DATE_TIME ( #141, #354 ) ;
#100 = LINE ( 'NONE', #340, #242 ) ;
#101 = ORIENTED_EDGE ( 'NONE', *, *, #285, .F. ) ;
#102 = DIRECTION ( 'NONE',  ( 0.0000000000000000000, 0.0000000000000000000, 1.000000000000000000 ) ) ;
#103 = EDGE_LOOP ( 'NONE', ( #132, #209, #332, #61 ) ) ;
#104 = CARTESIAN_POINT ( 'NONE',  ( -425.0000000000000000, -600.0000000000000000, 47.50000000000011400 ) ) ;
#105 = CARTESIAN_POINT ( 'NONE',  ( 395.0000000000000000, 120.0000000000000000, -47.50000000000000000 ) ) ;
#106 = EDGE_CURVE ( 'NONE', #124, #185, #253, .T. ) ;
#107 = CARTESIAN_POINT ( 'NONE',  ( -395.0000000000000600, -600.0000000000000000, -77.49999999999988600 ) ) ;
#108 = APPROVAL_PERSON_ORGANIZATION ( #272, #354, #87 ) ;
#109 = DIRECTION ( 'NONE',  ( 1.000000000000000000, -0.0000000000000000000, 0.0000000000000000000 ) ) ;
#110 = DIRECTION ( 'NONE',  ( 0.0000000000000000000, 0.0000000000000000000, 1.000000000000000000 ) ) ;
#111 = EDGE_CURVE ( 'NONE', #189, #24, #245, .T. ) ;
#112 = PERSON_AND_ORGANIZATION ( #292, #337 ) ;
#113 = LINE ( 'NONE', #116, #313 ) ;
#114 = VERTEX_POINT ( 'NONE', #104 ) ;
#115 = ORIENTED_EDGE ( 'NONE', *, *, #131, .T. ) ;
#116 = CARTESIAN_POINT ( 'NONE',  ( 425.0000000000000000, -600.0000000000000000, 47.50000000000000700 ) ) ;
#117 = CARTESIAN_POINT ( 'NONE',  ( 425.0000000000000000, -600.0000000000000000, -47.50000000000000000 ) ) ;
#118 = ORIENTED_EDGE ( 'NONE', *, *, #229, .F. ) ;
#119 = DIRECTION ( 'NONE',  ( 0.0000000000000000000, 0.0000000000000000000, 1.000000000000000000 ) ) ;
#120 = DATE_TIME_ROLE ( 'creation_date' ) ;
#121 = PERSON_AND_ORGANIZATION ( #292, #337 ) ;
#122 = AXIS2_PLACEMENT_3D ( 'NONE', #284, #312, #374 ) ;
#123 = LINE ( 'NONE', #49, #9 ) ;
#124 = VERTEX_POINT ( 'NONE', #191 ) ;
#125 = EDGE_CURVE ( 'NONE', #155, #54, #3, .T. ) ;
#126 = LINE ( 'NONE', #117, #8 ) ;
#127 = VERTEX_POINT ( 'NONE', #137 ) ;
#128 = SECURITY_CLASSIFICATION ( '', '', #93 ) ;
#129 = PERSON_AND_ORGANIZATION ( #292, #337 ) ;
#130 = LINE ( 'NONE', #80, #181 ) ;
#131 = EDGE_CURVE ( 'NONE', #185, #114, #130, .T. ) ;
#132 = ORIENTED_EDGE ( 'NONE', *, *, #187, .T. ) ;
#133 = DIRECTION ( 'NONE',  ( -0.0000000000000000000, -1.000000000000000000, -0.0000000000000000000 ) ) ;
#134 = CARTESIAN_POINT ( 'NONE',  ( -425.0000000000000000, -600.0000000000000000, -47.49999999999989300 ) ) ;
#135 = ORIENTED_EDGE ( 'NONE', *, *, #229, .T. ) ;
#136 = DIRECTION ( 'NONE',  ( 0.0000000000000000000, 1.000000000000000000, 0.0000000000000000000 ) ) ;
#137 = CARTESIAN_POINT ( 'NONE',  ( 425.0000000000000000, 120.0000000000000000, 47.50000000000000700 ) ) ;
#138 = CARTESIAN_POINT ( 'NONE',  ( -395.0000000000000000, -600.0000000000000000, 47.50000000000011400 ) ) ;
#139 = EDGE_CURVE ( 'NONE', #124, #55, #123, .T. ) ;
#140 = DIRECTION ( 'NONE',  ( 0.0000000000000000000, 1.000000000000000000, 0.0000000000000000000 ) ) ;
#141 = DATE_AND_TIME ( #299, #180 ) ;
#142 = LINE ( 'NONE', #221, #214 ) ;
#143 = ORIENTED_EDGE ( 'NONE', *, *, #6, .F. ) ;
#144 = CARTESIAN_POINT ( 'NONE',  ( 425.0000000000000000, 120.0000000000000000, -47.50000000000000000 ) ) ;
#145 = DIRECTION ( 'NONE',  ( -1.000000000000000000, 0.0000000000000000000, 1.306144734853125400E-016 ) ) ;
#146 =( GEOMETRIC_REPRESENTATION_CONTEXT ( 3 ) GLOBAL_UNCERTAINTY_ASSIGNED_CONTEXT ( ( #94 ) ) GLOBAL_UNIT_ASSIGNED_CONTEXT ( ( #26, #236, #154 ) ) REPRESENTATION_CONTEXT ( 'NONE', 'WORKASPACE' ) );
#147 = FACE_OUTER_BOUND ( 'NONE', #202, .T. ) ;
#148 = CARTESIAN_POINT ( 'NONE',  ( -395.0000000000000600, -600.0000000000000000, -47.49999999999989300 ) ) ;
#149 = CARTESIAN_POINT ( 'NONE',  ( 395.0000000000000600, 120.0000000000000000, 77.50000000000000000 ) ) ;
#150 = DIRECTION ( 'NONE',  ( 1.000000000000000000, 0.0000000000000000000, 0.0000000000000000000 ) ) ;
#151 = AXIS2_PLACEMENT_3D ( 'NONE', #366, #305, #250 ) ;
#152 = APPROVAL_PERSON_ORGANIZATION ( #201, #218, #232 ) ;
#153 = CIRCLE ( 'NONE', #7, 30.00000000000000000 ) ;
#154 =( NAMED_UNIT ( * ) SI_UNIT ( $, .STERADIAN. ) SOLID_ANGLE_UNIT ( ) );
#155 = VERTEX_POINT ( 'NONE', #196 ) ;
#156 = EDGE_LOOP ( 'NONE', ( #31, #370, #277, #118 ) ) ;
#157 = PRODUCT ( 'CounterWeight_Default_sldprt', 'CounterWeight_Default_sldprt', '', ( #89 ) ) ;
#158 = EDGE_CURVE ( 'NONE', #226, #298, #198, .T. ) ;
#159 = CYLINDRICAL_SURFACE ( 'NONE', #21, 30.00000000000000000 ) ;
#160 = ORIENTED_EDGE ( 'NONE', *, *, #111, .F. ) ;
#161 = PLANE ( 'NONE',  #183 ) ;
#162 = LINE ( 'NONE', #164, #376 ) ;
#163 = VERTEX_POINT ( 'NONE', #228 ) ;
#164 = CARTESIAN_POINT ( 'NONE',  ( 425.0000000000000000, -600.0000000000000000, -77.50000000000000000 ) ) ;
#165 = AXIS2_PLACEMENT_3D ( 'NONE', #46, #12, #102 ) ;
#166 = CARTESIAN_POINT ( 'NONE',  ( -425.0000000000000000, 120.0000000000000000, 47.50000000000011400 ) ) ;
#167 = CALENDAR_DATE ( 2019, 11, 4 ) ;
#168 = CIRCLE ( 'NONE', #248, 30.00000000000000000 ) ;
#169 = CARTESIAN_POINT ( 'NONE',  ( -395.0000000000000600, -600.0000000000000000, -77.49999999999988600 ) ) ;
#170 = CARTESIAN_POINT ( 'NONE',  ( -395.0000000000000600, 120.0000000000000000, -77.49999999999988600 ) ) ;
#171 = FACE_OUTER_BOUND ( 'NONE', #331, .T. ) ;
#172 = ORIENTED_EDGE ( 'NONE', *, *, #125, .T. ) ;
#173 = DIRECTION ( 'NONE',  ( 0.0000000000000000000, 0.0000000000000000000, 1.000000000000000000 ) ) ;
#174 = APPLICATION_PROTOCOL_DEFINITION ( 'international standard', 'config_control_design', 1994, #263 ) ;
#175 = ORIENTED_EDGE ( 'NONE', *, *, #208, .T. ) ;
#176 = EDGE_CURVE ( 'NONE', #357, #127, #296, .T. ) ;
#177 = APPROVAL_STATUS ( 'not_yet_approved' ) ;
#178 = DIRECTION ( 'NONE',  ( -1.000000000000000000, 0.0000000000000000000, 0.0000000000000000000 ) ) ;
#179 = AXIS2_PLACEMENT_3D ( 'NONE', #74, #75, #195 ) ;
#180 = LOCAL_TIME ( 13, 56, 25.00000000000000000, #341 ) ;
#181 = VECTOR ( 'NONE', #329, 1000.000000000000000 ) ;
#182 = ORIENTED_EDGE ( 'NONE', *, *, #285, .T. ) ;
#183 = AXIS2_PLACEMENT_3D ( 'NONE', #247, #244, #17 ) ;
#184 = MANIFOLD_SOLID_BREP ( 'Fillet4', #14 ) ;
#185 = VERTEX_POINT ( 'NONE', #255 ) ;
#186 = AXIS2_PLACEMENT_3D ( 'NONE', #307, #222, #78 ) ;
#187 = EDGE_CURVE ( 'NONE', #155, #41, #352, .T. ) ;
#188 = PERSON_AND_ORGANIZATION ( #292, #337 ) ;
#189 = VERTEX_POINT ( 'NONE', #144 ) ;
#190 = DIRECTION ( 'NONE',  ( -0.0000000000000000000, -1.000000000000000000, -0.0000000000000000000 ) ) ;
#191 = CARTESIAN_POINT ( 'NONE',  ( -425.0000000000000000, 120.0000000000000000, -47.49999999999989300 ) ) ;
#192 = PERSON_AND_ORGANIZATION ( #292, #337 ) ;
#193 = CC_DESIGN_SECURITY_CLASSIFICATION ( #128, ( #320 ) ) ;
#194 = EDGE_LOOP ( 'NONE', ( #73, #314, #96, #10 ) ) ;
#195 = DIRECTION ( 'NONE',  ( 1.000000000000000000, 0.0000000000000000000, -1.306144734853125600E-016 ) ) ;
#196 = CARTESIAN_POINT ( 'NONE',  ( 425.0000000000000000, -600.0000000000000000, 47.50000000000000700 ) ) ;
#197 = LOCAL_TIME ( 13, 56, 25.00000000000000000, #260 ) ;
#198 = LINE ( 'NONE', #107, #34 ) ;
#199 = DIRECTION ( 'NONE',  ( -0.0000000000000000000, -1.000000000000000000, -0.0000000000000000000 ) ) ;
#200 = AXIS2_PLACEMENT_3D ( 'NONE', #316, #178, #205 ) ;
#201 = PERSON_AND_ORGANIZATION ( #292, #337 ) ;
#202 = EDGE_LOOP ( 'NONE', ( #143, #182, #373, #172, #254, #246, #249, #361 ) ) ;
#203 = CARTESIAN_POINT ( 'NONE',  ( 0.0000000000000000000, 0.0000000000000000000, 0.0000000000000000000 ) ) ;
#204 = PLANE ( 'NONE',  #200 ) ;
#205 = DIRECTION ( 'NONE',  ( 0.0000000000000000000, 0.0000000000000000000, 1.000000000000000000 ) ) ;
#206 = ORIENTED_EDGE ( 'NONE', *, *, #158, .F. ) ;
#207 = ORIENTED_EDGE ( 'NONE', *, *, #293, .T. ) ;
#208 = EDGE_CURVE ( 'NONE', #163, #357, #44, .T. ) ;
#209 = ORIENTED_EDGE ( 'NONE', *, *, #372, .T. ) ;
#210 = ADVANCED_FACE ( 'NONE', ( #265 ), #330, .T. ) ;
#211 = AXIS2_PLACEMENT_3D ( 'NONE', #203, #119, #150 ) ;
#212 = EDGE_CURVE ( 'NONE', #114, #55, #100, .T. ) ;
#213 = CYLINDRICAL_SURFACE ( 'NONE', #368, 30.00000000000000000 ) ;
#214 = VECTOR ( 'NONE', #190, 1000.000000000000000 ) ;
#215 = ORIENTED_EDGE ( 'NONE', *, *, #52, .T. ) ;
#216 = DIRECTION ( 'NONE',  ( 0.0000000000000000000, 0.0000000000000000000, -1.000000000000000000 ) ) ;
#217 = DIRECTION ( 'NONE',  ( 0.0000000000000000000, 0.0000000000000000000, 1.000000000000000000 ) ) ;
#218 = APPROVAL ( #1, 'UNSPECIFIED' ) ;
#219 = FACE_OUTER_BOUND ( 'NONE', #103, .T. ) ;
#220 = ORIENTED_EDGE ( 'NONE', *, *, #139, .F. ) ;
#221 = CARTESIAN_POINT ( 'NONE',  ( -395.0000000000000000, -600.0000000000000000, 77.50000000000011400 ) ) ;
#222 = DIRECTION ( 'NONE',  ( 0.0000000000000000000, 1.000000000000000000, 0.0000000000000000000 ) ) ;
#223 = DATE_AND_TIME ( #276, #356 ) ;
#224 = CC_DESIGN_PERSON_AND_ORGANIZATION_ASSIGNMENT ( #188, #264, ( #320 ) ) ;
#225 = LINE ( 'NONE', #334, #92 ) ;
#226 = VERTEX_POINT ( 'NONE', #169 ) ;
#227 = DIRECTION ( 'NONE',  ( -0.0000000000000000000, -1.000000000000000000, -0.0000000000000000000 ) ) ;
#228 = CARTESIAN_POINT ( 'NONE',  ( -395.0000000000000000, 120.0000000000000000, 77.50000000000011400 ) ) ;
#229 = EDGE_CURVE ( 'NONE', #54, #357, #294, .T. ) ;
#230 = DIRECTION ( 'NONE',  ( 0.0000000000000000000, 0.0000000000000000000, 1.000000000000000000 ) ) ;
#231 = EDGE_LOOP ( 'NONE', ( #101, #2, #160, #267 ) ) ;
#232 = APPROVAL_ROLE ( '' ) ;
#233 = APPROVAL_ROLE ( '' ) ;
#234 = PRODUCT_DEFINITION_SHAPE ( 'NONE', 'NONE',  #290 ) ;
#235 = AXIS2_PLACEMENT_3D ( 'NONE', #105, #136, #217 ) ;
#236 =( NAMED_UNIT ( * ) PLANE_ANGLE_UNIT ( ) SI_UNIT ( $, .RADIAN. ) );
#237 = FACE_OUTER_BOUND ( 'NONE', #304, .T. ) ;
#238 = EDGE_CURVE ( 'NONE', #55, #163, #153, .T. ) ;
#239 = PERSON_AND_ORGANIZATION_ROLE ( 'classification_officer' ) ;
#240 = ORIENTED_EDGE ( 'NONE', *, *, #88, .T. ) ;
#241 = AXIS2_PLACEMENT_3D ( 'NONE', #84, #278, #110 ) ;
#242 = VECTOR ( 'NONE', #345, 1000.000000000000000 ) ;
#243 = CC_DESIGN_PERSON_AND_ORGANIZATION_ASSIGNMENT ( #317, #32, ( #320 ) ) ;
#244 = DIRECTION ( 'NONE',  ( -1.306144734853125600E-016, 0.0000000000000000000, -1.000000000000000000 ) ) ;
#245 = CIRCLE ( 'NONE', #235, 30.00000000000000000 ) ;
#246 = ORIENTED_EDGE ( 'NONE', *, *, #271, .T. ) ;
#247 = CARTESIAN_POINT ( 'NONE',  ( 425.0000000000000000, -600.0000000000000000, -77.50000000000000000 ) ) ;
#248 = AXIS2_PLACEMENT_3D ( 'NONE', #338, #199, #25 ) ;
#249 = ORIENTED_EDGE ( 'NONE', *, *, #131, .F. ) ;
#250 = DIRECTION ( 'NONE',  ( 0.0000000000000000000, -0.0000000000000000000, 1.000000000000000000 ) ) ;
#251 = DIRECTION ( 'NONE',  ( 0.0000000000000000000, 0.0000000000000000000, -1.000000000000000000 ) ) ;
#252 = EDGE_CURVE ( 'NONE', #185, #226, #168, .T. ) ;
#253 = LINE ( 'NONE', #134, #360 ) ;
#254 = ORIENTED_EDGE ( 'NONE', *, *, #88, .F. ) ;
#255 = CARTESIAN_POINT ( 'NONE',  ( -425.0000000000000000, -600.0000000000000000, -47.49999999999989300 ) ) ;
#256 = EDGE_LOOP ( 'NONE', ( #37, #4, #207, #295, #283, #326, #175, #35 ) ) ;
#257 = CARTESIAN_POINT ( 'NONE',  ( 425.0000000000000000, -600.0000000000000000, 77.50000000000000000 ) ) ;
#258 = CC_DESIGN_APPROVAL ( #349, ( #128 ) ) ;
#259 = DIRECTION ( 'NONE',  ( 0.0000000000000000000, 0.0000000000000000000, 1.000000000000000000 ) ) ;
#260 = COORDINATED_UNIVERSAL_TIME_OFFSET ( 5, 0, .BEHIND. ) ;
#261 = DIRECTION ( 'NONE',  ( 0.0000000000000000000, 1.000000000000000000, 0.0000000000000000000 ) ) ;
#262 = ORIENTED_EDGE ( 'NONE', *, *, #252, .F. ) ;
#263 = APPLICATION_CONTEXT ( 'configuration controlled 3d designs of mechanical parts and assemblies' ) ;
#264 = PERSON_AND_ORGANIZATION_ROLE ( 'design_supplier' ) ;
#265 = FACE_OUTER_BOUND ( 'NONE', #231, .T. ) ;
#266 = EDGE_CURVE ( 'NONE', #24, #76, #323, .T. ) ;
#267 = ORIENTED_EDGE ( 'NONE', *, *, #372, .F. ) ;
#268 = ORIENTED_EDGE ( 'NONE', *, *, #106, .T. ) ;
#269 = CC_DESIGN_PERSON_AND_ORGANIZATION_ASSIGNMENT ( #121, #350, ( #157 ) ) ;
#270 = ADVANCED_FACE ( 'NONE', ( #219 ), #58, .T. ) ;
#271 = EDGE_CURVE ( 'NONE', #77, #114, #85, .T. ) ;
#272 = PERSON_AND_ORGANIZATION ( #292, #337 ) ;
#273 = CYLINDRICAL_SURFACE ( 'NONE', #165, 30.00000000000000700 ) ;
#274 = CARTESIAN_POINT ( 'NONE',  ( 425.0000000000000000, 120.0000000000000000, 77.50000000000000000 ) ) ;
#275 = DIRECTION ( 'NONE',  ( -0.0000000000000000000, -1.000000000000000000, -0.0000000000000000000 ) ) ;
#276 = CALENDAR_DATE ( 2019, 11, 4 ) ;
#277 = ORIENTED_EDGE ( 'NONE', *, *, #176, .F. ) ;
#278 = DIRECTION ( 'NONE',  ( 0.0000000000000000000, 1.000000000000000000, 0.0000000000000000000 ) ) ;
#279 = CARTESIAN_POINT ( 'NONE',  ( 395.0000000000000600, -600.0000000000000000, 77.50000000000000000 ) ) ;
#280 = CALENDAR_DATE ( 2019, 11, 4 ) ;
#281 = FACE_OUTER_BOUND ( 'NONE', #353, .T. ) ;
#282 = DIRECTION ( 'NONE',  ( -0.0000000000000000000, -1.000000000000000000, -0.0000000000000000000 ) ) ;
#283 = ORIENTED_EDGE ( 'NONE', *, *, #139, .T. ) ;
#284 = CARTESIAN_POINT ( 'NONE',  ( 395.0000000000000000, -600.0000000000000000, -47.50000000000000000 ) ) ;
#285 = EDGE_CURVE ( 'NONE', #76, #41, #29, .T. ) ;
#286 = CARTESIAN_POINT ( 'NONE',  ( 425.0000000000000000, -600.0000000000000000, 77.50000000000000000 ) ) ;
#287 = DATE_AND_TIME ( #28, #197 ) ;
#288 = ORIENTED_EDGE ( 'NONE', *, *, #106, .F. ) ;
#289 = APPROVAL_STATUS ( 'not_yet_approved' ) ;
#290 = PRODUCT_DEFINITION ( 'UNKNOWN', '', #320, #90 ) ;
#291 = PERSON_AND_ORGANIZATION_ROLE ( 'creator' ) ;
#292 = PERSON ( 'UNSPECIFIED', 'UNSPECIFIED', 'UNSPECIFIED', ('UNSPECIFIED'), ('UNSPECIFIED'), ('UNSPECIFIED') ) ;
#293 = EDGE_CURVE ( 'NONE', #24, #298, #22, .T. ) ;
#294 = LINE ( 'NONE', #279, #19 ) ;
#295 = ORIENTED_EDGE ( 'NONE', *, *, #327, .T. ) ;
#296 = CIRCLE ( 'NONE', #241, 30.00000000000000700 ) ;
#297 = AXIS2_PLACEMENT_3D ( 'NONE', #60, #315, #259 ) ;
#298 = VERTEX_POINT ( 'NONE', #170 ) ;
#299 = CALENDAR_DATE ( 2019, 11, 4 ) ;
#300 = AXIS2_PLACEMENT_3D ( 'NONE', #257, #109, #56 ) ;
#301 = ADVANCED_FACE ( 'NONE', ( #281 ), #204, .T. ) ;
#302 = CARTESIAN_POINT ( 'NONE',  ( 395.0000000000000000, -600.0000000000000000, -77.50000000000000000 ) ) ;
#303 = CARTESIAN_POINT ( 'NONE',  ( 395.0000000000000000, 120.0000000000000000, -77.50000000000000000 ) ) ;
#304 = EDGE_LOOP ( 'NONE', ( #45, #48, #324, #86 ) ) ;
#305 = DIRECTION ( 'NONE',  ( 0.0000000000000000000, 1.000000000000000000, 0.0000000000000000000 ) ) ;
#306 = CARTESIAN_POINT ( 'NONE',  ( -395.0000000000000000, -600.0000000000000000, 77.50000000000011400 ) ) ;
#307 = CARTESIAN_POINT ( 'NONE',  ( 0.0000000000000000000, 120.0000000000000000, 0.0000000000000000000 ) ) ;
#308 = CC_DESIGN_DATE_AND_TIME_ASSIGNMENT ( #223, #120, ( #290 ) ) ;
#309 = LINE ( 'NONE', #274, #13 ) ;
#310 = CARTESIAN_POINT ( 'NONE',  ( 395.0000000000000000, -600.0000000000000000, -77.50000000000000000 ) ) ;
#311 = DIRECTION ( 'NONE',  ( 0.0000000000000000000, 0.0000000000000000000, 1.000000000000000000 ) ) ;
#312 = DIRECTION ( 'NONE',  ( -0.0000000000000000000, -1.000000000000000000, -0.0000000000000000000 ) ) ;
#313 = VECTOR ( 'NONE', #65, 1000.000000000000000 ) ;
#314 = ORIENTED_EDGE ( 'NONE', *, *, #52, .F. ) ;
#315 = DIRECTION ( 'NONE',  ( 0.0000000000000000000, 1.000000000000000000, 0.0000000000000000000 ) ) ;
#316 = CARTESIAN_POINT ( 'NONE',  ( -425.0000000000000000, -600.0000000000000000, -77.49999999999988600 ) ) ;
#317 = PERSON_AND_ORGANIZATION ( #292, #337 ) ;
#318 = FACE_OUTER_BOUND ( 'NONE', #69, .T. ) ;
#319 = DIRECTION ( 'NONE',  ( 0.0000000000000000000, 0.0000000000000000000, 1.000000000000000000 ) ) ;
#320 = PRODUCT_DEFINITION_FORMATION_WITH_SPECIFIED_SOURCE ( 'ANY', '', #157, .NOT_KNOWN. ) ;
#321 = ADVANCED_BREP_SHAPE_REPRESENTATION ( 'CounterWeight_Default_sldprt', ( #184, #211 ), #146 ) ;
#322 = EDGE_CURVE ( 'NONE', #127, #155, #113, .T. ) ;
#323 = LINE ( 'NONE', #310, #81 ) ;
#324 = ORIENTED_EDGE ( 'NONE', *, *, #6, .T. ) ;
#325 = CC_DESIGN_PERSON_AND_ORGANIZATION_ASSIGNMENT ( #112, #291, ( #290 ) ) ;
#326 = ORIENTED_EDGE ( 'NONE', *, *, #238, .T. ) ;
#327 = EDGE_CURVE ( 'NONE', #298, #124, #95, .T. ) ;
#328 = DATE_AND_TIME ( #280, #359 ) ;
#329 = DIRECTION ( 'NONE',  ( 0.0000000000000000000, 0.0000000000000000000, 1.000000000000000000 ) ) ;
#330 = CYLINDRICAL_SURFACE ( 'NONE', #339, 30.00000000000000000 ) ;
#331 = EDGE_LOOP ( 'NONE', ( #262, #288, #343, #206 ) ) ;
#332 = ORIENTED_EDGE ( 'NONE', *, *, #11, .F. ) ;
#333 = CARTESIAN_POINT ( 'NONE',  ( 425.0000000000000000, -600.0000000000000000, -47.50000000000000000 ) ) ;
#334 = CARTESIAN_POINT ( 'NONE',  ( -425.0000000000000000, -600.0000000000000000, 77.50000000000011400 ) ) ;
#335 = CC_DESIGN_APPROVAL ( #354, ( #290 ) ) ;
#336 = PLANE ( 'NONE',  #179 ) ;
#337 = ORGANIZATION ( 'UNSPECIFIED', 'UNSPECIFIED', '' ) ;
#338 = CARTESIAN_POINT ( 'NONE',  ( -395.0000000000000600, -600.0000000000000000, -47.49999999999989300 ) ) ;
#339 = AXIS2_PLACEMENT_3D ( 'NONE', #375, #23, #230 ) ;
#340 = CARTESIAN_POINT ( 'NONE',  ( -425.0000000000000000, -600.0000000000000000, 47.50000000000011400 ) ) ;
#341 = COORDINATED_UNIVERSAL_TIME_OFFSET ( 5, 0, .BEHIND. ) ;
#342 = VECTOR ( 'NONE', #51, 1000.000000000000000 ) ;
#343 = ORIENTED_EDGE ( 'NONE', *, *, #327, .F. ) ;
#344 = DIRECTION ( 'NONE',  ( 0.0000000000000000000, 1.000000000000000000, 0.0000000000000000000 ) ) ;
#345 = DIRECTION ( 'NONE',  ( 0.0000000000000000000, 1.000000000000000000, 0.0000000000000000000 ) ) ;
#346 = FACE_OUTER_BOUND ( 'NONE', #194, .T. ) ;
#347 = CARTESIAN_POINT ( 'NONE',  ( -395.0000000000000000, -600.0000000000000000, 47.50000000000011400 ) ) ;
#348 = DIRECTION ( 'NONE',  ( 0.0000000000000000000, 1.000000000000000000, 0.0000000000000000000 ) ) ;
#349 = APPROVAL ( #289, 'UNSPECIFIED' ) ;
#350 = PERSON_AND_ORGANIZATION_ROLE ( 'design_owner' ) ;
#351 = APPROVAL_DATE_TIME ( #287, #349 ) ;
#352 = LINE ( 'NONE', #286, #97 ) ;
#353 = EDGE_LOOP ( 'NONE', ( #220, #268, #115, #66 ) ) ;
#354 = APPROVAL ( #177, 'UNSPECIFIED' ) ;
#355 = ADVANCED_FACE ( 'NONE', ( #171 ), #213, .T. ) ;
#356 = LOCAL_TIME ( 13, 56, 25.00000000000000000, #63 ) ;
#357 = VERTEX_POINT ( 'NONE', #149 ) ;
#358 = ADVANCED_FACE ( 'NONE', ( #346 ), #159, .T. ) ;
#359 = LOCAL_TIME ( 13, 56, 25.00000000000000000, #40 ) ;
#360 = VECTOR ( 'NONE', #133, 1000.000000000000000 ) ;
#361 = ORIENTED_EDGE ( 'NONE', *, *, #252, .T. ) ;
#362 = CARTESIAN_POINT ( 'NONE',  ( 395.0000000000000600, -600.0000000000000000, 77.50000000000000000 ) ) ;
#363 = PLANE ( 'NONE',  #151 ) ;
#364 = LOCAL_TIME ( 13, 56, 25.00000000000000000, #71 ) ;
#365 = ORIENTED_EDGE ( 'NONE', *, *, #208, .F. ) ;
#366 = CARTESIAN_POINT ( 'NONE',  ( 0.0000000000000000000, -600.0000000000000000, 0.0000000000000000000 ) ) ;
#367 = DIRECTION ( 'NONE',  ( -1.000000000000000000, 0.0000000000000000000, 1.306144734853125400E-016 ) ) ;
#368 = AXIS2_PLACEMENT_3D ( 'NONE', #148, #261, #319 ) ;
#369 = APPROVAL_DATE_TIME ( #59, #218 ) ;
#370 = ORIENTED_EDGE ( 'NONE', *, *, #322, .F. ) ;
#371 = CARTESIAN_POINT ( 'NONE',  ( 425.0000000000000000, 120.0000000000000000, -77.50000000000000000 ) ) ;
#372 = EDGE_CURVE ( 'NONE', #41, #189, #126, .T. ) ;
#373 = ORIENTED_EDGE ( 'NONE', *, *, #187, .F. ) ;
#374 = DIRECTION ( 'NONE',  ( 0.0000000000000000000, 0.0000000000000000000, 1.000000000000000000 ) ) ;
#375 = CARTESIAN_POINT ( 'NONE',  ( 395.0000000000000000, -600.0000000000000000, -47.50000000000000000 ) ) ;
#376 = VECTOR ( 'NONE', #367, 1000.000000000000000 ) ;
#377 = APPLICATION_CONTEXT ( 'configuration controlled 3d designs of mechanical parts and assemblies' ) ;
ENDSEC;
END-ISO-10303-21;
