ISO-10303-21;
HEADER;
FILE_DESCRIPTION (( 'STEP AP203' ),
    '1' );
FILE_NAME ('CabinFrame1_Default_sldprt.STEP',
    '2019-04-11T17:56:20',
    ( '' ),
    ( '' ),
    'SwSTEP 2.0',
    'SolidWorks 2017',
    '' );
FILE_SCHEMA (( 'CONFIG_CONTROL_DESIGN' ));
ENDSEC;

DATA;
#1 = CARTESIAN_POINT ( 'NONE',  ( 5.000000000000011500, 5.000000000000000000, 2.500000000000000000 ) ) ;
#2 = DIRECTION ( 'NONE',  ( 1.000000000000000000, 0.0000000000000000000, 0.0000000000000000000 ) ) ;
#3 = DIRECTION ( 'NONE',  ( -1.183800797254514300E-016, 1.000000000000000000, 0.0000000000000000000 ) ) ;
#4 = ORGANIZATION ( 'UNSPECIFIED', 'UNSPECIFIED', '' ) ;
#5 = PERSON_AND_ORGANIZATION_ROLE ( 'classification_officer' ) ;
#6 = CLOSED_SHELL ( 'NONE', ( #176, #295, #145, #272, #276, #326, #358, #333, #149, #300 ) ) ;
#7 = EDGE_CURVE ( 'NONE', #20, #330, #375, .T. ) ;
#8 = FACE_OUTER_BOUND ( 'NONE', #185, .T. ) ;
#9 = DATE_AND_TIME ( #106, #187 ) ;
#10 = AXIS2_PLACEMENT_3D ( 'NONE', #197, #48, #195 ) ;
#11 = VECTOR ( 'NONE', #313, 39.37007874015748100 ) ;
#12 = AXIS2_PLACEMENT_3D ( 'NONE', #45, #367, #96 ) ;
#13 = VERTEX_POINT ( 'NONE', #190 ) ;
#14 = VECTOR ( 'NONE', #194, 39.37007874015748100 ) ;
#15 = PRODUCT_RELATED_PRODUCT_CATEGORY ( 'detail', '', ( #354 ) ) ;
#16 = EDGE_LOOP ( 'NONE', ( #57, #271, #275, #305 ) ) ;
#17 = PERSON_AND_ORGANIZATION ( #31, #4 ) ;
#18 = CARTESIAN_POINT ( 'NONE',  ( 0.0000000000000000000, 0.0000000000000000000, 2.500000000000000000 ) ) ;
#19 = EDGE_CURVE ( 'NONE', #330, #219, #335, .T. ) ;
#20 = VERTEX_POINT ( 'NONE', #365 ) ;
#21 = CARTESIAN_POINT ( 'NONE',  ( 85.00000000000000000, 125.0000000000000000, 0.0000000000000000000 ) ) ;
#22 = CARTESIAN_POINT ( 'NONE',  ( 90.00000000000000000, 130.0000000000000000, 2.500000000000000000 ) ) ;
#23 = LINE ( 'NONE', #199, #255 ) ;
#25 = DIRECTION ( 'NONE',  ( -0.0000000000000000000, -1.000000000000000000, -0.0000000000000000000 ) ) ;
#24 = AXIS2_PLACEMENT_3D ( 'NONE', #202, #170, #322 ) ;
#26 = PLANE ( 'NONE',  #324 ) ;
#27 = VERTEX_POINT ( 'NONE', #214 ) ;
#28 = CARTESIAN_POINT ( 'NONE',  ( 90.00000000000000000, 130.0000000000000000, 0.0000000000000000000 ) ) ;
#29 = APPLICATION_CONTEXT ( 'configuration controlled 3d designs of mechanical parts and assemblies' ) ;
#30 = DIRECTION ( 'NONE',  ( 0.0000000000000000000, 0.0000000000000000000, 1.000000000000000000 ) ) ;
#31 = PERSON ( 'UNSPECIFIED', 'UNSPECIFIED', 'UNSPECIFIED', ('UNSPECIFIED'), ('UNSPECIFIED'), ('UNSPECIFIED') ) ;
#32 = DIRECTION ( 'NONE',  ( -0.0000000000000000000, -0.0000000000000000000, -1.000000000000000000 ) ) ;
#33 = VECTOR ( 'NONE', #97, 39.37007874015748100 ) ;
#34 = CARTESIAN_POINT ( 'NONE',  ( 4.999999999999997300, 125.0000000000000000, 2.500000000000000000 ) ) ;
#35 = ORIENTED_EDGE ( 'NONE', *, *, #245, .F. ) ;
#36 = SECURITY_CLASSIFICATION ( '', '', #325 ) ;
#37 = APPROVAL_DATE_TIME ( #265, #179 ) ;
#38 = ORIENTED_EDGE ( 'NONE', *, *, #192, .F. ) ;
#39 = ORIENTED_EDGE ( 'NONE', *, *, #277, .F. ) ;
#40 = PRODUCT_DEFINITION ( 'UNKNOWN', '', #143, #75 ) ;
#41 = VERTEX_POINT ( 'NONE', #250 ) ;
#42 = LINE ( 'NONE', #144, #148 ) ;
#43 = CARTESIAN_POINT ( 'NONE',  ( 4.999999999999997300, 125.0000000000000000, 2.500000000000000000 ) ) ;
#44 = CALENDAR_DATE ( 2019, 11, 4 ) ;
#45 = CARTESIAN_POINT ( 'NONE',  ( 0.0000000000000000000, 0.0000000000000000000, 2.500000000000000000 ) ) ;
#46 = ORIENTED_EDGE ( 'NONE', *, *, #7, .T. ) ;
#47 = DIRECTION ( 'NONE',  ( 1.000000000000000000, 0.0000000000000000000, 0.0000000000000000000 ) ) ;
#48 = DIRECTION ( 'NONE',  ( 0.0000000000000000000, 0.0000000000000000000, -1.000000000000000000 ) ) ;
#49 = DIRECTION ( 'NONE',  ( -0.0000000000000000000, -0.0000000000000000000, -1.000000000000000000 ) ) ;
#50 = LINE ( 'NONE', #162, #331 ) ;
#51 = COORDINATED_UNIVERSAL_TIME_OFFSET ( 5, 0, .BEHIND. ) ;
#53 = PLANE ( 'NONE',  #89 ) ;
#52 = CC_DESIGN_APPROVAL ( #373, ( #36 ) ) ;
#54 = DIRECTION ( 'NONE',  ( 0.0000000000000000000, -1.000000000000000000, 0.0000000000000000000 ) ) ;
#55 = EDGE_LOOP ( 'NONE', ( #132, #327, #126, #211 ) ) ;
#56 = CARTESIAN_POINT ( 'NONE',  ( 0.0000000000000000000, 0.0000000000000000000, 2.500000000000000000 ) ) ;
#57 = ORIENTED_EDGE ( 'NONE', *, *, #184, .F. ) ;
#58 = EDGE_CURVE ( 'NONE', #244, #85, #119, .T. ) ;
#59 = DIRECTION ( 'NONE',  ( 1.000000000000000000, 1.183800797254514300E-016, -0.0000000000000000000 ) ) ;
#60 = ORIENTED_EDGE ( 'NONE', *, *, #245, .T. ) ;
#61 = PERSON_AND_ORGANIZATION_ROLE ( 'creator' ) ;
#62 =( CONVERSION_BASED_UNIT ( 'INCH', #248 ) LENGTH_UNIT ( ) NAMED_UNIT ( #360 ) );
#63 = ORIENTED_EDGE ( 'NONE', *, *, #228, .F. ) ;
#64 = AXIS2_PLACEMENT_3D ( 'NONE', #1, #226, #294 ) ;
#65 = PLANE ( 'NONE',  #196 ) ;
#66 = PERSON_AND_ORGANIZATION ( #31, #4 ) ;
#67 = LINE ( 'NONE', #137, #340 ) ;
#68 = LINE ( 'NONE', #346, #160 ) ;
#69 = LOCAL_TIME ( 13, 56, 20.00000000000000000, #208 ) ;
#70 = COORDINATED_UNIVERSAL_TIME_OFFSET ( 5, 0, .BEHIND. ) ;
#71 = CARTESIAN_POINT ( 'NONE',  ( 4.999999999999997300, 125.0000000000000000, 0.0000000000000000000 ) ) ;
#72 = VECTOR ( 'NONE', #342, 39.37007874015748100 ) ;
#73 = DIRECTION ( 'NONE',  ( -0.0000000000000000000, -0.0000000000000000000, -1.000000000000000000 ) ) ;
#74 = APPROVAL_PERSON_ORGANIZATION ( #66, #373, #171 ) ;
#75 = DESIGN_CONTEXT ( 'detailed design', #29, 'design' ) ;
#76 = CARTESIAN_POINT ( 'NONE',  ( 90.00000000000000000, 0.0000000000000000000, 2.500000000000000000 ) ) ;
#77 = ORIENTED_EDGE ( 'NONE', *, *, #19, .T. ) ;
#78 = CARTESIAN_POINT ( 'NONE',  ( 0.0000000000000000000, 0.0000000000000000000, 2.500000000000000000 ) ) ;
#79 = APPROVAL_PERSON_ORGANIZATION ( #316, #278, #267 ) ;
#80 = CARTESIAN_POINT ( 'NONE',  ( 5.000000000000011500, 5.000000000000000000, 2.500000000000000000 ) ) ;
#81 = LINE ( 'NONE', #124, #308 ) ;
#82 = LINE ( 'NONE', #71, #72 ) ;
#83 =( LENGTH_UNIT ( ) NAMED_UNIT ( * ) SI_UNIT ( $, .METRE. ) );
#84 = EDGE_CURVE ( 'NONE', #341, #244, #82, .T. ) ;
#85 = VERTEX_POINT ( 'NONE', #366 ) ;
#86 = PERSON_AND_ORGANIZATION_ROLE ( 'design_supplier' ) ;
#87 = APPROVAL_STATUS ( 'not_yet_approved' ) ;
#88 = UNCERTAINTY_MEASURE_WITH_UNIT (LENGTH_MEASURE( 1.000000000000000100E-005 ), #62, 'distance_accuracy_value', 'NONE');
#89 = AXIS2_PLACEMENT_3D ( 'NONE', #261, #289, #290 ) ;
#90 = LOCAL_TIME ( 13, 56, 20.00000000000000000, #70 ) ;
#91 = LINE ( 'NONE', #21, #328 ) ;
#92 = COORDINATED_UNIVERSAL_TIME_OFFSET ( 5, 0, .BEHIND. ) ;
#93 = VECTOR ( 'NONE', #262, 39.37007874015748100 ) ;
#94 = CC_DESIGN_SECURITY_CLASSIFICATION ( #36, ( #143 ) ) ;
#95 = VECTOR ( 'NONE', #189, 39.37007874015748100 ) ;
#96 = DIRECTION ( 'NONE',  ( 0.0000000000000000000, 0.0000000000000000000, -1.000000000000000000 ) ) ;
#97 = DIRECTION ( 'NONE',  ( -0.0000000000000000000, -0.0000000000000000000, -1.000000000000000000 ) ) ;
#98 = DIRECTION ( 'NONE',  ( -0.0000000000000000000, -0.0000000000000000000, -1.000000000000000000 ) ) ;
#99 = LINE ( 'NONE', #56, #169 ) ;
#100 = DIRECTION ( 'NONE',  ( -1.000000000000000000, -0.0000000000000000000, -0.0000000000000000000 ) ) ;
#101 = LINE ( 'NONE', #215, #93 ) ;
#102 = DIRECTION ( 'NONE',  ( 1.183800797254514100E-016, -1.000000000000000000, 0.0000000000000000000 ) ) ;
#103 = ORIENTED_EDGE ( 'NONE', *, *, #361, .F. ) ;
#104 = DIRECTION ( 'NONE',  ( -1.000000000000000000, 0.0000000000000000000, 0.0000000000000000000 ) ) ;
#105 = LINE ( 'NONE', #141, #155 ) ;
#106 = CALENDAR_DATE ( 2019, 11, 4 ) ;
#108 = CARTESIAN_POINT ( 'NONE',  ( 0.0000000000000000000, 130.0000000000000000, 2.500000000000000000 ) ) ;
#107 = AXIS2_PLACEMENT_3D ( 'NONE', #372, #54, #310 ) ;
#109 = ORIENTED_EDGE ( 'NONE', *, *, #269, .F. ) ;
#110 = EDGE_CURVE ( 'NONE', #120, #357, #268, .T. ) ;
#111 = PERSON_AND_ORGANIZATION_ROLE ( 'design_owner' ) ;
#112 = DATE_TIME_ROLE ( 'classification_date' ) ;
#113 = APPLICATION_PROTOCOL_DEFINITION ( 'international standard', 'config_control_design', 1994, #353 ) ;
#114 = CARTESIAN_POINT ( 'NONE',  ( 85.00000000000000000, 125.0000000000000000, 2.500000000000000000 ) ) ;
#115 = LINE ( 'NONE', #221, #11 ) ;
#116 = LOCAL_TIME ( 13, 56, 20.00000000000000000, #92 ) ;
#117 = ORIENTED_EDGE ( 'NONE', *, *, #84, .F. ) ;
#118 = VECTOR ( 'NONE', #49, 39.37007874015748100 ) ;
#119 = LINE ( 'NONE', #280, #312 ) ;
#120 = VERTEX_POINT ( 'NONE', #193 ) ;
#121 = LINE ( 'NONE', #18, #318 ) ;
#122 = ORIENTED_EDGE ( 'NONE', *, *, #151, .F. ) ;
#123 = CARTESIAN_POINT ( 'NONE',  ( 85.00000000000000000, 125.0000000000000000, 2.500000000000000000 ) ) ;
#124 = CARTESIAN_POINT ( 'NONE',  ( 5.000000000000011500, 5.000000000000000000, 0.0000000000000000000 ) ) ;
#125 = ORIENTED_EDGE ( 'NONE', *, *, #110, .T. ) ;
#126 = ORIENTED_EDGE ( 'NONE', *, *, #151, .T. ) ;
#127 = DIRECTION ( 'NONE',  ( -1.456985596620940400E-016, 1.000000000000000000, -0.0000000000000000000 ) ) ;
#128 = VERTEX_POINT ( 'NONE', #246 ) ;
#129 = DIRECTION ( 'NONE',  ( -1.456985596620940400E-016, 1.000000000000000000, -0.0000000000000000000 ) ) ;
#130 = VECTOR ( 'NONE', #98, 39.37007874015748100 ) ;
#131 = LINE ( 'NONE', #286, #118 ) ;
#132 = ORIENTED_EDGE ( 'NONE', *, *, #84, .T. ) ;
#133 = ORIENTED_EDGE ( 'NONE', *, *, #192, .T. ) ;
#134 = DIRECTION ( 'NONE',  ( 1.000000000000000000, 0.0000000000000000000, 0.0000000000000000000 ) ) ;
#135 = FACE_OUTER_BOUND ( 'NONE', #303, .T. ) ;
#136 = PERSON_AND_ORGANIZATION ( #31, #4 ) ;
#137 = CARTESIAN_POINT ( 'NONE',  ( 0.0000000000000000000, 130.0000000000000000, 0.0000000000000000000 ) ) ;
#138 = EDGE_LOOP ( 'NONE', ( #122, #332, #188, #183 ) ) ;
#139 = PERSON_AND_ORGANIZATION ( #31, #4 ) ;
#140 = CARTESIAN_POINT ( 'NONE',  ( 90.00000000000000000, 0.0000000000000000000, 0.0000000000000000000 ) ) ;
#141 = CARTESIAN_POINT ( 'NONE',  ( 90.00000000000000000, 0.0000000000000000000, 2.500000000000000000 ) ) ;
#142 = VECTOR ( 'NONE', #102, 39.37007874015748100 ) ;
#143 = PRODUCT_DEFINITION_FORMATION_WITH_SPECIFIED_SOURCE ( 'ANY', '', #354, .NOT_KNOWN. ) ;
#144 = CARTESIAN_POINT ( 'NONE',  ( 90.00000000000000000, 0.0000000000000000000, 0.0000000000000000000 ) ) ;
#145 = ADVANCED_FACE ( 'NONE', ( #166 ), #254, .F. ) ;
#146 = EDGE_CURVE ( 'NONE', #128, #341, #91, .T. ) ;
#147 = CARTESIAN_POINT ( 'NONE',  ( 85.00000000000000000, 125.0000000000000000, 0.0000000000000000000 ) ) ;
#148 = VECTOR ( 'NONE', #263, 39.37007874015748100 ) ;
#149 = ADVANCED_FACE ( 'NONE', ( #239 ), #304, .T. ) ;
#150 = DATE_AND_TIME ( #339, #181 ) ;
#151 = EDGE_CURVE ( 'NONE', #85, #128, #81, .T. ) ;
#152 = ORIENTED_EDGE ( 'NONE', *, *, #320, .T. ) ;
#153 = ORIENTED_EDGE ( 'NONE', *, *, #175, .F. ) ;
#154 = COORDINATED_UNIVERSAL_TIME_OFFSET ( 5, 0, .BEHIND. ) ;
#155 = VECTOR ( 'NONE', #204, 39.37007874015748100 ) ;
#156 = ORIENTED_EDGE ( 'NONE', *, *, #19, .F. ) ;
#157 =( GEOMETRIC_REPRESENTATION_CONTEXT ( 3 ) GLOBAL_UNCERTAINTY_ASSIGNED_CONTEXT ( ( #88 ) ) GLOBAL_UNIT_ASSIGNED_CONTEXT ( ( #62, #233, #351 ) ) REPRESENTATION_CONTEXT ( 'NONE', 'WORKASPACE' ) );
#158 = CARTESIAN_POINT ( 'NONE',  ( 0.0000000000000000000, 0.0000000000000000000, 0.0000000000000000000 ) ) ;
#159 = ORIENTED_EDGE ( 'NONE', *, *, #361, .T. ) ;
#160 = VECTOR ( 'NONE', #73, 39.37007874015748100 ) ;
#161 = EDGE_LOOP ( 'NONE', ( #329, #38, #224, #125 ) ) ;
#162 = CARTESIAN_POINT ( 'NONE',  ( 0.0000000000000000000, 0.0000000000000000000, 0.0000000000000000000 ) ) ;
#163 = CARTESIAN_POINT ( 'NONE',  ( 85.00000000000000000, 125.0000000000000000, 2.500000000000000000 ) ) ;
#164 = EDGE_CURVE ( 'NONE', #352, #85, #293, .T. ) ;
#165 = DIRECTION ( 'NONE',  ( 0.0000000000000000000, -0.0000000000000000000, 1.000000000000000000 ) ) ;
#166 = FACE_OUTER_BOUND ( 'NONE', #311, .T. ) ;
#167 = CARTESIAN_POINT ( 'NONE',  ( 0.0000000000000000000, 0.0000000000000000000, 2.500000000000000000 ) ) ;
#168 = ORIENTED_EDGE ( 'NONE', *, *, #178, .F. ) ;
#169 = VECTOR ( 'NONE', #355, 39.37007874015748100 ) ;
#170 = DIRECTION ( 'NONE',  ( 0.0000000000000000000, -1.000000000000000000, 0.0000000000000000000 ) ) ;
#171 = APPROVAL_ROLE ( '' ) ;
#172 = PRODUCT_DEFINITION_SHAPE ( 'NONE', 'NONE',  #40 ) ;
#173 = CC_DESIGN_PERSON_AND_ORGANIZATION_ASSIGNMENT ( #136, #61, ( #143 ) ) ;
#174 = ORIENTED_EDGE ( 'NONE', *, *, #198, .T. ) ;
#175 = EDGE_CURVE ( 'NONE', #299, #41, #121, .T. ) ;
#176 = ADVANCED_FACE ( 'NONE', ( #284, #205 ), #370, .F. ) ;
#177 = FACE_OUTER_BOUND ( 'NONE', #216, .T. ) ;
#178 = EDGE_CURVE ( 'NONE', #20, #128, #101, .T. ) ;
#179 = APPROVAL ( #87, 'UNSPECIFIED' ) ;
#180 = ORIENTED_EDGE ( 'NONE', *, *, #110, .F. ) ;
#181 = LOCAL_TIME ( 13, 56, 20.00000000000000000, #154 ) ;
#182 = CC_DESIGN_PERSON_AND_ORGANIZATION_ASSIGNMENT ( #307, #111, ( #354 ) ) ;
#183 = ORIENTED_EDGE ( 'NONE', *, *, #178, .T. ) ;
#184 = EDGE_CURVE ( 'NONE', #210, #27, #292, .T. ) ;
#185 = EDGE_LOOP ( 'NONE', ( #236, #180, #337, #159 ) ) ;
#186 = FACE_OUTER_BOUND ( 'NONE', #138, .T. ) ;
#187 = LOCAL_TIME ( 13, 56, 20.00000000000000000, #51 ) ;
#188 = ORIENTED_EDGE ( 'NONE', *, *, #277, .T. ) ;
#189 = DIRECTION ( 'NONE',  ( -1.000000000000000000, -0.0000000000000000000, -0.0000000000000000000 ) ) ;
#190 = CARTESIAN_POINT ( 'NONE',  ( 90.00000000000000000, 130.0000000000000000, 2.500000000000000000 ) ) ;
#191 = ADVANCED_BREP_SHAPE_REPRESENTATION ( 'CabinFrame1_Default_sldprt', ( #356, #235 ), #157 ) ;
#192 = EDGE_CURVE ( 'NONE', #13, #321, #243, .T. ) ;
#193 = CARTESIAN_POINT ( 'NONE',  ( 90.00000000000000000, 0.0000000000000000000, 2.500000000000000000 ) ) ;
#194 = DIRECTION ( 'NONE',  ( -0.0000000000000000000, -0.0000000000000000000, -1.000000000000000000 ) ) ;
#195 = DIRECTION ( 'NONE',  ( -1.000000000000000000, 0.0000000000000000000, -0.0000000000000000000 ) ) ;
#197 = CARTESIAN_POINT ( 'NONE',  ( 0.0000000000000000000, 0.0000000000000000000, 2.500000000000000000 ) ) ;
#196 = AXIS2_PLACEMENT_3D ( 'NONE', #34, #59, #3 ) ;
#198 = EDGE_CURVE ( 'NONE', #219, #352, #242, .T. ) ;
#199 = CARTESIAN_POINT ( 'NONE',  ( 0.0000000000000000000, 130.0000000000000000, 2.500000000000000000 ) ) ;
#200 = ORIENTED_EDGE ( 'NONE', *, *, #58, .F. ) ;
#201 = EDGE_CURVE ( 'NONE', #321, #210, #67, .T. ) ;
#202 = CARTESIAN_POINT ( 'NONE',  ( 0.0000000000000000000, 130.0000000000000000, 2.500000000000000000 ) ) ;
#203 = VECTOR ( 'NONE', #25, 39.37007874015748100 ) ;
#204 = DIRECTION ( 'NONE',  ( 0.0000000000000000000, 1.000000000000000000, 0.0000000000000000000 ) ) ;
#205 = FACE_BOUND ( 'NONE', #260, .T. ) ;
#206 = AXIS2_PLACEMENT_3D ( 'NONE', #123, #282, #338 ) ;
#207 = PLANE ( 'NONE',  #64 ) ;
#208 = COORDINATED_UNIVERSAL_TIME_OFFSET ( 5, 0, .BEHIND. ) ;
#209 = CC_DESIGN_APPROVAL ( #179, ( #40 ) ) ;
#210 = VERTEX_POINT ( 'NONE', #376 ) ;
#211 = ORIENTED_EDGE ( 'NONE', *, *, #146, .T. ) ;
#212 = DIRECTION ( 'NONE',  ( 1.183800797254514100E-016, -1.000000000000000000, 0.0000000000000000000 ) ) ;
#213 = ORIENTED_EDGE ( 'NONE', *, *, #201, .T. ) ;
#214 = CARTESIAN_POINT ( 'NONE',  ( 0.0000000000000000000, 0.0000000000000000000, 0.0000000000000000000 ) ) ;
#215 = CARTESIAN_POINT ( 'NONE',  ( 85.00000000000001400, 5.000000000000000000, 2.500000000000000000 ) ) ;
#216 = EDGE_LOOP ( 'NONE', ( #200, #63, #174, #234 ) ) ;
#217 = CARTESIAN_POINT ( 'NONE',  ( 4.999999999999997300, 125.0000000000000000, 2.500000000000000000 ) ) ;
#218 = CALENDAR_DATE ( 2019, 11, 4 ) ;
#219 = VERTEX_POINT ( 'NONE', #217 ) ;
#220 = PLANE ( 'NONE',  #223 ) ;
#221 = CARTESIAN_POINT ( 'NONE',  ( 5.000000000000011500, 5.000000000000000000, 2.500000000000000000 ) ) ;
#223 = AXIS2_PLACEMENT_3D ( 'NONE', #76, #104, #347 ) ;
#222 = PLANE ( 'NONE',  #107 ) ;
#224 = ORIENTED_EDGE ( 'NONE', *, *, #374, .F. ) ;
#225 = PERSON_AND_ORGANIZATION ( #31, #4 ) ;
#226 = DIRECTION ( 'NONE',  ( 0.0000000000000000000, 1.000000000000000000, 0.0000000000000000000 ) ) ;
#227 = CARTESIAN_POINT ( 'NONE',  ( 0.0000000000000000000, 0.0000000000000000000, 0.0000000000000000000 ) ) ;
#228 = EDGE_CURVE ( 'NONE', #219, #244, #131, .T. ) ;
#229 = VECTOR ( 'NONE', #129, 39.37007874015748100 ) ;
#230 = DATE_TIME_ROLE ( 'creation_date' ) ;
#231 = ORIENTED_EDGE ( 'NONE', *, *, #198, .F. ) ;
#232 = FACE_OUTER_BOUND ( 'NONE', #273, .T. ) ;
#233 =( NAMED_UNIT ( * ) PLANE_ANGLE_UNIT ( ) SI_UNIT ( $, .RADIAN. ) );
#234 = ORIENTED_EDGE ( 'NONE', *, *, #164, .T. ) ;
#235 = AXIS2_PLACEMENT_3D ( 'NONE', #227, #30, #2 ) ;
#236 = ORIENTED_EDGE ( 'NONE', *, *, #256, .T. ) ;
#237 = ORIENTED_EDGE ( 'NONE', *, *, #253, .T. ) ;
#238 = ORIENTED_EDGE ( 'NONE', *, *, #269, .T. ) ;
#239 = FACE_OUTER_BOUND ( 'NONE', #345, .T. ) ;
#240 = CC_DESIGN_PERSON_AND_ORGANIZATION_ASSIGNMENT ( #225, #264, ( #40 ) ) ;
#241 = CC_DESIGN_APPROVAL ( #278, ( #143 ) ) ;
#242 = LINE ( 'NONE', #344, #142 ) ;
#243 = LINE ( 'NONE', #22, #14 ) ;
#244 = VERTEX_POINT ( 'NONE', #257 ) ;
#245 = EDGE_CURVE ( 'NONE', #299, #210, #68, .T. ) ;
#246 = CARTESIAN_POINT ( 'NONE',  ( 85.00000000000001400, 5.000000000000000000, 0.0000000000000000000 ) ) ;
#247 = FACE_OUTER_BOUND ( 'NONE', #161, .T. ) ;
#248 = LENGTH_MEASURE_WITH_UNIT ( LENGTH_MEASURE( 0.02539999999999999900 ), #83 );
#249 = CC_DESIGN_PERSON_AND_ORGANIZATION_ASSIGNMENT ( #139, #86, ( #143 ) ) ;
#250 = CARTESIAN_POINT ( 'NONE',  ( 0.0000000000000000000, 0.0000000000000000000, 2.500000000000000000 ) ) ;
#251 = CARTESIAN_POINT ( 'NONE',  ( 90.00000000000000000, 0.0000000000000000000, 2.500000000000000000 ) ) ;
#252 = ORIENTED_EDGE ( 'NONE', *, *, #374, .T. ) ;
#253 = EDGE_CURVE ( 'NONE', #13, #299, #23, .T. ) ;
#254 = PLANE ( 'NONE',  #12 ) ;
#255 = VECTOR ( 'NONE', #100, 39.37007874015748100 ) ;
#256 = EDGE_CURVE ( 'NONE', #27, #357, #50, .T. ) ;
#257 = CARTESIAN_POINT ( 'NONE',  ( 4.999999999999997300, 125.0000000000000000, 0.0000000000000000000 ) ) ;
#259 = DIRECTION ( 'NONE',  ( 0.0000000000000000000, 1.000000000000000000, 0.0000000000000000000 ) ) ;
#258 = CC_DESIGN_DATE_AND_TIME_ASSIGNMENT ( #150, #230, ( #40 ) ) ;
#260 = EDGE_LOOP ( 'NONE', ( #231, #156, #297, #39 ) ) ;
#261 = CARTESIAN_POINT ( 'NONE',  ( 0.0000000000000000000, 0.0000000000000000000, 0.0000000000000000000 ) ) ;
#262 = DIRECTION ( 'NONE',  ( -0.0000000000000000000, -0.0000000000000000000, -1.000000000000000000 ) ) ;
#263 = DIRECTION ( 'NONE',  ( 0.0000000000000000000, 1.000000000000000000, 0.0000000000000000000 ) ) ;
#264 = PERSON_AND_ORGANIZATION_ROLE ( 'creator' ) ;
#265 = DATE_AND_TIME ( #343, #90 ) ;
#266 = PLANE ( 'NONE',  #24 ) ;
#267 = APPROVAL_ROLE ( '' ) ;
#268 = LINE ( 'NONE', #251, #33 ) ;
#269 = EDGE_CURVE ( 'NONE', #330, #341, #279, .T. ) ;
#270 = MECHANICAL_CONTEXT ( 'NONE', #353, 'mechanical' ) ;
#271 = ORIENTED_EDGE ( 'NONE', *, *, #201, .F. ) ;
#272 = ADVANCED_FACE ( 'NONE', ( #8 ), #26, .F. ) ;
#273 = EDGE_LOOP ( 'NONE', ( #213, #35, #349, #133 ) ) ;
#274 = APPROVAL_DATE_TIME ( #348, #278 ) ;
#275 = ORIENTED_EDGE ( 'NONE', *, *, #302, .F. ) ;
#276 = ADVANCED_FACE ( 'NONE', ( #247 ), #220, .F. ) ;
#277 = EDGE_CURVE ( 'NONE', #352, #20, #115, .T. ) ;
#278 = APPROVAL ( #291, 'UNSPECIFIED' ) ;
#279 = LINE ( 'NONE', #163, #287 ) ;
#280 = CARTESIAN_POINT ( 'NONE',  ( 4.999999999999997300, 125.0000000000000000, 0.0000000000000000000 ) ) ;
#281 = ORIENTED_EDGE ( 'NONE', *, *, #175, .T. ) ;
#282 = DIRECTION ( 'NONE',  ( -1.000000000000000000, -1.456985596620940600E-016, 0.0000000000000000000 ) ) ;
#283 = CARTESIAN_POINT ( 'NONE',  ( 5.000000000000011500, 5.000000000000000000, 2.500000000000000000 ) ) ;
#284 = FACE_OUTER_BOUND ( 'NONE', #334, .T. ) ;
#286 = CARTESIAN_POINT ( 'NONE',  ( 4.999999999999997300, 125.0000000000000000, 2.500000000000000000 ) ) ;
#285 = CC_DESIGN_PERSON_AND_ORGANIZATION_ASSIGNMENT ( #364, #5, ( #36 ) ) ;
#287 = VECTOR ( 'NONE', #288, 39.37007874015748100 ) ;
#288 = DIRECTION ( 'NONE',  ( -0.0000000000000000000, -0.0000000000000000000, -1.000000000000000000 ) ) ;
#289 = DIRECTION ( 'NONE',  ( 0.0000000000000000000, 0.0000000000000000000, -1.000000000000000000 ) ) ;
#290 = DIRECTION ( 'NONE',  ( -1.000000000000000000, 0.0000000000000000000, -0.0000000000000000000 ) ) ;
#291 = APPROVAL_STATUS ( 'not_yet_approved' ) ;
#292 = LINE ( 'NONE', #158, #203 ) ;
#293 = LINE ( 'NONE', #283, #130 ) ;
#294 = DIRECTION ( 'NONE',  ( 0.0000000000000000000, -0.0000000000000000000, 1.000000000000000000 ) ) ;
#295 = ADVANCED_FACE ( 'NONE', ( #323, #314 ), #53, .T. ) ;
#296 = APPLICATION_PROTOCOL_DEFINITION ( 'international standard', 'config_control_design', 1994, #29 ) ;
#297 = ORIENTED_EDGE ( 'NONE', *, *, #7, .F. ) ;
#298 = VECTOR ( 'NONE', #32, 39.37007874015748100 ) ;
#299 = VERTEX_POINT ( 'NONE', #108 ) ;
#300 = ADVANCED_FACE ( 'NONE', ( #135 ), #222, .T. ) ;
#301 = CC_DESIGN_DATE_AND_TIME_ASSIGNMENT ( #9, #112, ( #36 ) ) ;
#302 = EDGE_CURVE ( 'NONE', #357, #321, #42, .T. ) ;
#303 = EDGE_LOOP ( 'NONE', ( #117, #109, #77, #306 ) ) ;
#304 = PLANE ( 'NONE',  #206 ) ;
#305 = ORIENTED_EDGE ( 'NONE', *, *, #256, .F. ) ;
#306 = ORIENTED_EDGE ( 'NONE', *, *, #228, .T. ) ;
#307 = PERSON_AND_ORGANIZATION ( #31, #4 ) ;
#308 = VECTOR ( 'NONE', #47, 39.37007874015748100 ) ;
#309 = ORIENTED_EDGE ( 'NONE', *, *, #184, .T. ) ;
#310 = DIRECTION ( 'NONE',  ( 0.0000000000000000000, -0.0000000000000000000, -1.000000000000000000 ) ) ;
#311 = EDGE_LOOP ( 'NONE', ( #309, #103, #153, #60 ) ) ;
#312 = VECTOR ( 'NONE', #212, 39.37007874015748100 ) ;
#313 = DIRECTION ( 'NONE',  ( 1.000000000000000000, 0.0000000000000000000, 0.0000000000000000000 ) ) ;
#314 = FACE_BOUND ( 'NONE', #55, .T. ) ;
#315 = APPROVAL_DATE_TIME ( #363, #373 ) ;
#316 = PERSON_AND_ORGANIZATION ( #31, #4 ) ;
#317 = APPROVAL_ROLE ( '' ) ;
#318 = VECTOR ( 'NONE', #336, 39.37007874015748100 ) ;
#319 = APPROVAL_STATUS ( 'not_yet_approved' ) ;
#320 = EDGE_CURVE ( 'NONE', #41, #120, #99, .T. ) ;
#321 = VERTEX_POINT ( 'NONE', #28 ) ;
#322 = DIRECTION ( 'NONE',  ( 0.0000000000000000000, -0.0000000000000000000, -1.000000000000000000 ) ) ;
#323 = FACE_OUTER_BOUND ( 'NONE', #16, .T. ) ;
#324 = AXIS2_PLACEMENT_3D ( 'NONE', #78, #259, #165 ) ;
#325 = SECURITY_CLASSIFICATION_LEVEL ( 'unclassified' ) ;
#326 = ADVANCED_FACE ( 'NONE', ( #232 ), #266, .F. ) ;
#327 = ORIENTED_EDGE ( 'NONE', *, *, #58, .T. ) ;
#328 = VECTOR ( 'NONE', #127, 39.37007874015748100 ) ;
#329 = ORIENTED_EDGE ( 'NONE', *, *, #302, .T. ) ;
#330 = VERTEX_POINT ( 'NONE', #114 ) ;
#331 = VECTOR ( 'NONE', #134, 39.37007874015748100 ) ;
#332 = ORIENTED_EDGE ( 'NONE', *, *, #164, .F. ) ;
#333 = ADVANCED_FACE ( 'NONE', ( #186 ), #207, .T. ) ;
#334 = EDGE_LOOP ( 'NONE', ( #281, #152, #252, #237 ) ) ;
#335 = LINE ( 'NONE', #43, #95 ) ;
#336 = DIRECTION ( 'NONE',  ( -0.0000000000000000000, -1.000000000000000000, -0.0000000000000000000 ) ) ;
#337 = ORIENTED_EDGE ( 'NONE', *, *, #320, .F. ) ;
#338 = DIRECTION ( 'NONE',  ( 1.456985596620940600E-016, -1.000000000000000000, 0.0000000000000000000 ) ) ;
#339 = CALENDAR_DATE ( 2019, 11, 4 ) ;
#340 = VECTOR ( 'NONE', #350, 39.37007874015748100 ) ;
#341 = VERTEX_POINT ( 'NONE', #147 ) ;
#342 = DIRECTION ( 'NONE',  ( -1.000000000000000000, -0.0000000000000000000, -0.0000000000000000000 ) ) ;
#343 = CALENDAR_DATE ( 2019, 11, 4 ) ;
#344 = CARTESIAN_POINT ( 'NONE',  ( 4.999999999999997300, 125.0000000000000000, 2.500000000000000000 ) ) ;
#345 = EDGE_LOOP ( 'NONE', ( #368, #168, #46, #238 ) ) ;
#346 = CARTESIAN_POINT ( 'NONE',  ( 0.0000000000000000000, 130.0000000000000000, 2.500000000000000000 ) ) ;
#347 = DIRECTION ( 'NONE',  ( 0.0000000000000000000, 0.0000000000000000000, 1.000000000000000000 ) ) ;
#348 = DATE_AND_TIME ( #44, #69 ) ;
#349 = ORIENTED_EDGE ( 'NONE', *, *, #253, .F. ) ;
#350 = DIRECTION ( 'NONE',  ( -1.000000000000000000, -0.0000000000000000000, -0.0000000000000000000 ) ) ;
#351 =( NAMED_UNIT ( * ) SI_UNIT ( $, .STERADIAN. ) SOLID_ANGLE_UNIT ( ) );
#352 = VERTEX_POINT ( 'NONE', #80 ) ;
#353 = APPLICATION_CONTEXT ( 'configuration controlled 3d designs of mechanical parts and assemblies' ) ;
#354 = PRODUCT ( 'CabinFrame1_Default_sldprt', 'CabinFrame1_Default_sldprt', '', ( #270 ) ) ;
#355 = DIRECTION ( 'NONE',  ( 1.000000000000000000, 0.0000000000000000000, 0.0000000000000000000 ) ) ;
#356 = MANIFOLD_SOLID_BREP ( 'Boss-Extrude1', #6 ) ;
#357 = VERTEX_POINT ( 'NONE', #140 ) ;
#358 = ADVANCED_FACE ( 'NONE', ( #177 ), #65, .T. ) ;
#359 = APPROVAL_PERSON_ORGANIZATION ( #17, #179, #317 ) ;
#360 = DIMENSIONAL_EXPONENTS ( 1.000000000000000000, 0.0000000000000000000, 0.0000000000000000000, 0.0000000000000000000, 0.0000000000000000000, 0.0000000000000000000, 0.0000000000000000000 ) ;
#361 = EDGE_CURVE ( 'NONE', #41, #27, #371, .T. ) ;
#362 = SHAPE_DEFINITION_REPRESENTATION ( #172, #191 ) ;
#363 = DATE_AND_TIME ( #218, #116 ) ;
#364 = PERSON_AND_ORGANIZATION ( #31, #4 ) ;
#365 = CARTESIAN_POINT ( 'NONE',  ( 85.00000000000001400, 5.000000000000000000, 2.500000000000000000 ) ) ;
#366 = CARTESIAN_POINT ( 'NONE',  ( 5.000000000000011500, 5.000000000000000000, 0.0000000000000000000 ) ) ;
#367 = DIRECTION ( 'NONE',  ( 1.000000000000000000, 0.0000000000000000000, 0.0000000000000000000 ) ) ;
#368 = ORIENTED_EDGE ( 'NONE', *, *, #146, .F. ) ;
#369 = CARTESIAN_POINT ( 'NONE',  ( 85.00000000000000000, 125.0000000000000000, 2.500000000000000000 ) ) ;
#370 = PLANE ( 'NONE',  #10 ) ;
#371 = LINE ( 'NONE', #167, #298 ) ;
#372 = CARTESIAN_POINT ( 'NONE',  ( 4.999999999999997300, 125.0000000000000000, 2.500000000000000000 ) ) ;
#373 = APPROVAL ( #319, 'UNSPECIFIED' ) ;
#374 = EDGE_CURVE ( 'NONE', #120, #13, #105, .T. ) ;
#375 = LINE ( 'NONE', #369, #229 ) ;
#376 = CARTESIAN_POINT ( 'NONE',  ( 0.0000000000000000000, 130.0000000000000000, 0.0000000000000000000 ) ) ;
ENDSEC;
END-ISO-10303-21;
